ISO-10303-21;
HEADER;
FILE_DESCRIPTION (( 'STEP AP214' ),
    '1' );
FILE_NAME ('Ball 345.STEP',
    '2017-09-26T14:09:44',
    ( '' ),
    ( '' ),
    'SwSTEP 2.0',
    'SolidWorks 2016',
    '' );
FILE_SCHEMA (( 'AUTOMOTIVE_DESIGN' ));
ENDSEC;

DATA;
#1 = VECTOR ( 'NONE', #155, 1000.000000000000000 ) ;
#2 = PRODUCT ( 'Ball 345', 'Ball 345', '', ( #38 ) ) ;
#3 = CLOSED_SHELL ( 'NONE', ( #112, #136, #43, #158, #147 ) ) ;
#4 = SPHERICAL_SURFACE ( 'NONE', #160, 172.5000000000000000 ) ;
#5 = SPHERICAL_SURFACE ( 'NONE', #97, 172.5000000000000000 ) ;
#6 = EDGE_CURVE ( 'NONE', #71, #44, #60, .T. ) ;
#7 = ORIENTED_EDGE ( 'NONE', *, *, #86, .T. ) ;
#8 = CARTESIAN_POINT ( 'NONE',  ( -2.620744150175361500E-015, -171.1674326500224800, 21.40000000000020800 ) ) ;
#9 = FILL_AREA_STYLE_COLOUR ( '', #111 ) ;
#10 = CYLINDRICAL_SURFACE ( 'NONE', #128, 21.39999999999999900 ) ;
#11 = DIRECTION ( 'NONE',  ( 0.0000000000000000000, 0.0000000000000000000, -1.000000000000000000 ) ) ;
#12 = DIRECTION ( 'NONE',  ( -1.000000000000000000, 0.0000000000000000000, -0.0000000000000000000 ) ) ;
#13 = EDGE_CURVE ( 'NONE', #27, #44, #18, .T. ) ;
#14 = DIRECTION ( 'NONE',  ( 0.0000000000000000000, 0.0000000000000000000, -1.000000000000000000 ) ) ;
#15 = DIRECTION ( 'NONE',  ( -1.224646799147353200E-016, 0.0000000000000000000, 1.000000000000000000 ) ) ;
#16 = SHAPE_DEFINITION_REPRESENTATION ( #77, #135 ) ;
#17 = EDGE_CURVE ( 'NONE', #44, #71, #113, .T. ) ;
#18 = LINE ( 'NONE', #146, #1 ) ;
#19 = AXIS2_PLACEMENT_3D ( 'NONE', #103, #117, #101 ) ;
#20 = CARTESIAN_POINT ( 'NONE',  ( 0.0000000000000000000, 102.5000000000000000, 0.0000000000000000000 ) ) ;
#21 = AXIS2_PLACEMENT_3D ( 'NONE', #50, #104, #90 ) ;
#22 = ORIENTED_EDGE ( 'NONE', *, *, #13, .F. ) ;
#23 = DIRECTION ( 'NONE',  ( 0.0000000000000000000, -1.000000000000000000, 0.0000000000000000000 ) ) ;
#24 = SURFACE_STYLE_FILL_AREA ( #93 ) ;
#25 = CIRCLE ( 'NONE', #107, 21.39999999999999900 ) ;
#26 =( LENGTH_UNIT ( ) NAMED_UNIT ( * ) SI_UNIT ( .MILLI., .METRE. ) );
#27 = VERTEX_POINT ( 'NONE', #83 ) ;
#28 = PRODUCT_RELATED_PRODUCT_CATEGORY ( 'part', '', ( #2 ) ) ;
#29 = CARTESIAN_POINT ( 'NONE',  ( 0.0000000000000000000, -171.1674326500224800, -21.40000000000020800 ) ) ;
#30 = ORIENTED_EDGE ( 'NONE', *, *, #6, .F. ) ;
#31 = PRODUCT_DEFINITION_CONTEXT ( 'detailed design', #40, 'design' ) ;
#32 = EDGE_LOOP ( 'NONE', ( #100, #162, #140, #30 ) ) ;
#33 = FILL_AREA_STYLE_COLOUR ( '', #61 ) ;
#34 = EDGE_LOOP ( 'NONE', ( #159, #102 ) ) ;
#35 = PLANE ( 'NONE',  #19 ) ;
#36 = AXIS2_PLACEMENT_3D ( 'NONE', #138, #145, #81 ) ;
#37 = DIRECTION ( 'NONE',  ( 0.0000000000000000000, 0.0000000000000000000, -1.000000000000000000 ) ) ;
#38 = PRODUCT_CONTEXT ( 'NONE', #79, 'mechanical' ) ;
#39 = ORIENTED_EDGE ( 'NONE', *, *, #134, .T. ) ;
#40 = APPLICATION_CONTEXT ( 'automotive_design' ) ;
#41 = EDGE_CURVE ( 'NONE', #123, #27, #25, .T. ) ;
#42 = AXIS2_PLACEMENT_3D ( 'NONE', #58, #96, #72 ) ;
#43 = ADVANCED_FACE ( 'NONE', ( #63 ), #5, .T. ) ;
#44 = VERTEX_POINT ( 'NONE', #29 ) ;
#45 = FILL_AREA_STYLE ('',( #9 ) ) ;
#46 = CIRCLE ( 'NONE', #21, 21.39999999999999900 ) ;
#47 = SURFACE_SIDE_STYLE ('',( #133 ) ) ;
#48 = STYLED_ITEM ( 'NONE', ( #92 ), #94 ) ;
#49 = CARTESIAN_POINT ( 'NONE',  ( 0.0000000000000000000, 0.0000000000000000000, 0.0000000000000000000 ) ) ;
#50 = CARTESIAN_POINT ( 'NONE',  ( 0.0000000000000000000, 102.5000000000000000, 0.0000000000000000000 ) ) ;
#51 = PRESENTATION_STYLE_ASSIGNMENT (( #53 ) ) ;
#52 =( NAMED_UNIT ( * ) PLANE_ANGLE_UNIT ( ) SI_UNIT ( $, .RADIAN. ) );
#53 = SURFACE_STYLE_USAGE ( .BOTH. , #108 ) ;
#54 = UNCERTAINTY_MEASURE_WITH_UNIT (LENGTH_MEASURE( 1.000000000000000100E-005 ), #88, 'distance_accuracy_value', 'NONE');
#55 =( LENGTH_UNIT ( ) NAMED_UNIT ( * ) SI_UNIT ( .MILLI., .METRE. ) );
#56 = DIRECTION ( 'NONE',  ( 0.0000000000000000000, 0.0000000000000000000, 1.000000000000000000 ) ) ;
#57 = FACE_OUTER_BOUND ( 'NONE', #32, .T. ) ;
#58 = CARTESIAN_POINT ( 'NONE',  ( 0.0000000000000000000, -171.1674326500224500, 0.0000000000000000000 ) ) ;
#59 =( GEOMETRIC_REPRESENTATION_CONTEXT ( 3 ) GLOBAL_UNCERTAINTY_ASSIGNED_CONTEXT ( ( #66 ) ) GLOBAL_UNIT_ASSIGNED_CONTEXT ( ( #55, #144, #152 ) ) REPRESENTATION_CONTEXT ( 'NONE', 'WORKASPACE' ) );
#60 = CIRCLE ( 'NONE', #109, 21.39999999999999900 ) ;
#61 = COLOUR_RGB ( '',0.7921568627450980000, 0.8196078431372548800, 0.9333333333333333500 ) ;
#62 = ORIENTED_EDGE ( 'NONE', *, *, #17, .T. ) ;
#63 = FACE_OUTER_BOUND ( 'NONE', #143, .T. ) ;
#64 = DIRECTION ( 'NONE',  ( 0.0000000000000000000, -1.000000000000000000, 0.0000000000000000000 ) ) ;
#65 = CARTESIAN_POINT ( 'NONE',  ( 2.620744150175335500E-015, 102.5000000000000000, 21.39999999999999900 ) ) ;
#66 = UNCERTAINTY_MEASURE_WITH_UNIT (LENGTH_MEASURE( 1.000000000000000100E-005 ), #55, 'distance_accuracy_value', 'NONE');
#67 = CARTESIAN_POINT ( 'NONE',  ( 0.0000000000000000000, 102.5000000000000000, 0.0000000000000000000 ) ) ;
#68 = ORIENTED_EDGE ( 'NONE', *, *, #163, .F. ) ;
#69 = CARTESIAN_POINT ( 'NONE',  ( 0.0000000000000000000, -171.1674326500224500, 0.0000000000000000000 ) ) ;
#70 = DIRECTION ( 'NONE',  ( 0.0000000000000000000, 1.000000000000000000, 0.0000000000000000000 ) ) ;
#71 = VERTEX_POINT ( 'NONE', #8 ) ;
#72 = DIRECTION ( 'NONE',  ( 0.0000000000000000000, 0.0000000000000000000, 1.000000000000000000 ) ) ;
#73 =( GEOMETRIC_REPRESENTATION_CONTEXT ( 3 ) GLOBAL_UNCERTAINTY_ASSIGNED_CONTEXT ( ( #106 ) ) GLOBAL_UNIT_ASSIGNED_CONTEXT ( ( #26, #52, #142 ) ) REPRESENTATION_CONTEXT ( 'NONE', 'WORKASPACE' ) );
#74 = ORIENTED_EDGE ( 'NONE', *, *, #86, .F. ) ;
#75 = CARTESIAN_POINT ( 'NONE',  ( 2.620744150175335500E-015, 102.5000000000000000, 21.39999999999999900 ) ) ;
#76 = CARTESIAN_POINT ( 'NONE',  ( 0.0000000000000000000, 0.0000000000000000000, 0.0000000000000000000 ) ) ;
#77 = PRODUCT_DEFINITION_SHAPE ( 'NONE', 'NONE',  #166 ) ;
#78 = STYLED_ITEM ( 'NONE', ( #51 ), #135 ) ;
#79 = APPLICATION_CONTEXT ( 'automotive_design' ) ;
#80 = LINE ( 'NONE', #75, #82 ) ;
#81 = DIRECTION ( 'NONE',  ( 1.000000000000000000, 0.0000000000000000000, 0.0000000000000000000 ) ) ;
#82 = VECTOR ( 'NONE', #64, 1000.000000000000000 ) ;
#83 = CARTESIAN_POINT ( 'NONE',  ( 0.0000000000000000000, 102.5000000000000000, -21.39999999999999900 ) ) ;
#84 = AXIS2_PLACEMENT_3D ( 'NONE', #76, #164, #37 ) ;
#85 = DIRECTION ( 'NONE',  ( 0.0000000000000000000, 1.000000000000000000, 0.0000000000000000000 ) ) ;
#86 = EDGE_CURVE ( 'NONE', #44, #95, #132, .T. ) ;
#87 = CARTESIAN_POINT ( 'NONE',  ( 0.0000000000000000000, 172.5000000000000000, -1.056257864264592100E-014 ) ) ;
#88 =( LENGTH_UNIT ( ) NAMED_UNIT ( * ) SI_UNIT ( .MILLI., .METRE. ) );
#89 = SURFACE_STYLE_USAGE ( .BOTH. , #47 ) ;
#90 = DIRECTION ( 'NONE',  ( 0.0000000000000000000, 0.0000000000000000000, 1.000000000000000000 ) ) ;
#91 = DIRECTION ( 'NONE',  ( 0.0000000000000000000, 0.0000000000000000000, -1.000000000000000000 ) ) ;
#92 = PRESENTATION_STYLE_ASSIGNMENT (( #89 ) ) ;
#93 = FILL_AREA_STYLE ('',( #33 ) ) ;
#94 = MANIFOLD_SOLID_BREP ( 'Cut-Extrude1', #3 ) ;
#95 = VERTEX_POINT ( 'NONE', #87 ) ;
#96 = DIRECTION ( 'NONE',  ( 0.0000000000000000000, 1.000000000000000000, 0.0000000000000000000 ) ) ;
#97 = AXIS2_PLACEMENT_3D ( 'NONE', #157, #110, #11 ) ;
#98 = ORIENTED_EDGE ( 'NONE', *, *, #163, .T. ) ;
#99 = AXIS2_PLACEMENT_3D ( 'NONE', #20, #23, #121 ) ;
#100 = ORIENTED_EDGE ( 'NONE', *, *, #125, .F. ) ;
#101 = DIRECTION ( 'NONE',  ( 0.0000000000000000000, -0.0000000000000000000, 1.000000000000000000 ) ) ;
#102 = ORIENTED_EDGE ( 'NONE', *, *, #41, .F. ) ;
#103 = CARTESIAN_POINT ( 'NONE',  ( 0.0000000000000000000, 102.5000000000000000, 0.0000000000000000000 ) ) ;
#104 = DIRECTION ( 'NONE',  ( 0.0000000000000000000, 1.000000000000000000, 0.0000000000000000000 ) ) ;
#105 = ORIENTED_EDGE ( 'NONE', *, *, #17, .F. ) ;
#106 = UNCERTAINTY_MEASURE_WITH_UNIT (LENGTH_MEASURE( 1.000000000000000100E-005 ), #26, 'distance_accuracy_value', 'NONE');
#107 = AXIS2_PLACEMENT_3D ( 'NONE', #122, #85, #161 ) ;
#108 = SURFACE_SIDE_STYLE ('',( #24 ) ) ;
#109 = AXIS2_PLACEMENT_3D ( 'NONE', #69, #70, #56 ) ;
#110 = DIRECTION ( 'NONE',  ( -1.000000000000000000, 0.0000000000000000000, -0.0000000000000000000 ) ) ;
#111 = COLOUR_RGB ( '',0.7921568627450980000, 0.8196078431372548800, 0.9333333333333333500 ) ;
#112 = ADVANCED_FACE ( 'NONE', ( #148 ), #10, .F. ) ;
#113 = CIRCLE ( 'NONE', #42, 21.39999999999999900 ) ;
#114 = PRODUCT_DEFINITION_FORMATION_WITH_SPECIFIED_SOURCE ( 'ANY', '', #2, .NOT_KNOWN. ) ;
#115 =( GEOMETRIC_REPRESENTATION_CONTEXT ( 3 ) GLOBAL_UNCERTAINTY_ASSIGNED_CONTEXT ( ( #54 ) ) GLOBAL_UNIT_ASSIGNED_CONTEXT ( ( #88, #119, #116 ) ) REPRESENTATION_CONTEXT ( 'NONE', 'WORKASPACE' ) );
#116 =( NAMED_UNIT ( * ) SI_UNIT ( $, .STERADIAN. ) SOLID_ANGLE_UNIT ( ) );
#117 = DIRECTION ( 'NONE',  ( 0.0000000000000000000, 1.000000000000000000, 0.0000000000000000000 ) ) ;
#118 = DIRECTION ( 'NONE',  ( -1.000000000000000000, -0.0000000000000000000, -1.224646799147353200E-016 ) ) ;
#119 =( NAMED_UNIT ( * ) PLANE_ANGLE_UNIT ( ) SI_UNIT ( $, .RADIAN. ) );
#120 = MECHANICAL_DESIGN_GEOMETRIC_PRESENTATION_REPRESENTATION (  '', ( #78 ), #59 ) ;
#121 = DIRECTION ( 'NONE',  ( 0.0000000000000000000, 0.0000000000000000000, -1.000000000000000000 ) ) ;
#122 = CARTESIAN_POINT ( 'NONE',  ( 0.0000000000000000000, 102.5000000000000000, 0.0000000000000000000 ) ) ;
#123 = VERTEX_POINT ( 'NONE', #65 ) ;
#124 = AXIS2_PLACEMENT_3D ( 'NONE', #49, #118, #15 ) ;
#125 = EDGE_CURVE ( 'NONE', #123, #71, #80, .T. ) ;
#126 = EDGE_LOOP ( 'NONE', ( #62, #98, #74 ) ) ;
#127 = FACE_OUTER_BOUND ( 'NONE', #34, .T. ) ;
#128 = AXIS2_PLACEMENT_3D ( 'NONE', #67, #139, #91 ) ;
#129 = APPLICATION_PROTOCOL_DEFINITION ( 'draft international standard', 'automotive_design', 1998, #40 ) ;
#130 = ORIENTED_EDGE ( 'NONE', *, *, #125, .T. ) ;
#131 = FACE_OUTER_BOUND ( 'NONE', #126, .T. ) ;
#132 = CIRCLE ( 'NONE', #84, 172.5000000000000000 ) ;
#133 = SURFACE_STYLE_FILL_AREA ( #45 ) ;
#134 = EDGE_CURVE ( 'NONE', #27, #123, #46, .T. ) ;
#135 = ADVANCED_BREP_SHAPE_REPRESENTATION ( 'Ball 345', ( #94, #36 ), #73 ) ;
#136 = ADVANCED_FACE ( 'NONE', ( #131 ), #4, .T. ) ;
#137 = ORIENTED_EDGE ( 'NONE', *, *, #6, .T. ) ;
#138 = CARTESIAN_POINT ( 'NONE',  ( 0.0000000000000000000, 0.0000000000000000000, 0.0000000000000000000 ) ) ;
#139 = DIRECTION ( 'NONE',  ( 0.0000000000000000000, -1.000000000000000000, 0.0000000000000000000 ) ) ;
#140 = ORIENTED_EDGE ( 'NONE', *, *, #13, .T. ) ;
#141 = CARTESIAN_POINT ( 'NONE',  ( 0.0000000000000000000, 0.0000000000000000000, 0.0000000000000000000 ) ) ;
#142 =( NAMED_UNIT ( * ) SI_UNIT ( $, .STERADIAN. ) SOLID_ANGLE_UNIT ( ) );
#143 = EDGE_LOOP ( 'NONE', ( #68, #137, #7 ) ) ;
#144 =( NAMED_UNIT ( * ) PLANE_ANGLE_UNIT ( ) SI_UNIT ( $, .RADIAN. ) );
#145 = DIRECTION ( 'NONE',  ( 0.0000000000000000000, 0.0000000000000000000, 1.000000000000000000 ) ) ;
#146 = CARTESIAN_POINT ( 'NONE',  ( 0.0000000000000000000, 102.5000000000000000, -21.39999999999999900 ) ) ;
#147 = ADVANCED_FACE ( 'NONE', ( #127 ), #35, .F. ) ;
#148 = FACE_OUTER_BOUND ( 'NONE', #165, .T. ) ;
#149 = PRESENTATION_LAYER_ASSIGNMENT (  '', '', ( #48 ) ) ;
#150 = CYLINDRICAL_SURFACE ( 'NONE', #99, 21.39999999999999900 ) ;
#151 = MECHANICAL_DESIGN_GEOMETRIC_PRESENTATION_REPRESENTATION (  '', ( #48 ), #115 ) ;
#152 =( NAMED_UNIT ( * ) SI_UNIT ( $, .STERADIAN. ) SOLID_ANGLE_UNIT ( ) );
#153 = CIRCLE ( 'NONE', #124, 172.5000000000000000 ) ;
#154 = APPLICATION_PROTOCOL_DEFINITION ( 'draft international standard', 'automotive_design', 1998, #79 ) ;
#155 = DIRECTION ( 'NONE',  ( 0.0000000000000000000, -1.000000000000000000, 0.0000000000000000000 ) ) ;
#156 = PRESENTATION_LAYER_ASSIGNMENT (  '', '', ( #78 ) ) ;
#157 = CARTESIAN_POINT ( 'NONE',  ( 0.0000000000000000000, 0.0000000000000000000, 0.0000000000000000000 ) ) ;
#158 = ADVANCED_FACE ( 'NONE', ( #57 ), #150, .F. ) ;
#159 = ORIENTED_EDGE ( 'NONE', *, *, #134, .F. ) ;
#160 = AXIS2_PLACEMENT_3D ( 'NONE', #141, #12, #14 ) ;
#161 = DIRECTION ( 'NONE',  ( 0.0000000000000000000, 0.0000000000000000000, 1.000000000000000000 ) ) ;
#162 = ORIENTED_EDGE ( 'NONE', *, *, #41, .T. ) ;
#163 = EDGE_CURVE ( 'NONE', #71, #95, #153, .T. ) ;
#164 = DIRECTION ( 'NONE',  ( 1.000000000000000000, 0.0000000000000000000, 0.0000000000000000000 ) ) ;
#165 = EDGE_LOOP ( 'NONE', ( #39, #130, #105, #22 ) ) ;
#166 = PRODUCT_DEFINITION ( 'UNKNOWN', '', #114, #31 ) ;
ENDSEC;
END-ISO-10303-21;
