ISO-10303-21;
HEADER;
FILE_DESCRIPTION (( 'STEP AP203' ),
    '1' );
FILE_NAME ('Ball 500.STEP',
    '2017-10-02T10:02:03',
    ( '' ),
    ( '' ),
    'SwSTEP 2.0',
    'SolidWorks 2016',
    '' );
FILE_SCHEMA (( 'CONFIG_CONTROL_DESIGN' ));
ENDSEC;

DATA;
#1 = DIRECTION ( 'NONE',  ( 0.0000000000000000000, -1.000000000000000000, 0.0000000000000000000 ) ) ;
#2 = ORIENTED_EDGE ( 'NONE', *, *, #154, .T. ) ;
#3 = SHAPE_DEFINITION_REPRESENTATION ( #33, #8 ) ;
#4 = FACE_OUTER_BOUND ( 'NONE', #150, .T. ) ;
#5 = EDGE_CURVE ( 'NONE', #161, #130, #118, .T. ) ;
#6 = APPROVAL_DATE_TIME ( #181, #95 ) ;
#7 = AXIS2_PLACEMENT_3D ( 'NONE', #13, #27, #28 ) ;
#8 = ADVANCED_BREP_SHAPE_REPRESENTATION ( 'Ball 500', ( #55, #160 ), #183 ) ;
#9 = CIRCLE ( 'NONE', #92, 21.39999999999999900 ) ;
#10 = ADVANCED_FACE ( 'NONE', ( #57 ), #19, .F. ) ;
#11 = FACE_OUTER_BOUND ( 'NONE', #18, .T. ) ;
#12 = DIRECTION ( 'NONE',  ( 0.0000000000000000000, 1.000000000000000000, 0.0000000000000000000 ) ) ;
#13 = CARTESIAN_POINT ( 'NONE',  ( 0.0000000000000000000, 0.0000000000000000000, 0.0000000000000000000 ) ) ;
#14 = PRODUCT_DEFINITION_FORMATION_WITH_SPECIFIED_SOURCE ( 'ANY', '', #121, .NOT_KNOWN. ) ;
#15 = DATE_AND_TIME ( #29, #86 ) ;
#16 = APPROVAL ( #94, 'UNSPECIFIED' ) ;
#17 = CALENDAR_DATE ( 2017, 2, 10 ) ;
#18 = EDGE_LOOP ( 'NONE', ( #30, #101, #124, #85 ) ) ;
#19 = PLANE ( 'NONE',  #177 ) ;
#20 = EDGE_CURVE ( 'NONE', #130, #43, #157, .T. ) ;
#21 = DIRECTION ( 'NONE',  ( 0.0000000000000000000, 1.000000000000000000, 0.0000000000000000000 ) ) ;
#22 = CALENDAR_DATE ( 2017, 2, 10 ) ;
#23 = AXIS2_PLACEMENT_3D ( 'NONE', #72, #141, #104 ) ;
#24 = APPROVAL_DATE_TIME ( #184, #16 ) ;
#25 = PERSON_AND_ORGANIZATION ( #125, #40 ) ;
#26 = AXIS2_PLACEMENT_3D ( 'NONE', #109, #12, #45 ) ;
#27 = DIRECTION ( 'NONE',  ( -1.000000000000000000, 0.0000000000000000000, -0.0000000000000000000 ) ) ;
#28 = DIRECTION ( 'NONE',  ( 0.0000000000000000000, 0.0000000000000000000, -1.000000000000000000 ) ) ;
#29 = CALENDAR_DATE ( 2017, 2, 10 ) ;
#30 = ORIENTED_EDGE ( 'NONE', *, *, #169, .T. ) ;
#31 = DIRECTION ( 'NONE',  ( 0.0000000000000000000, 1.000000000000000000, 0.0000000000000000000 ) ) ;
#32 = CLOSED_SHELL ( 'NONE', ( #54, #200, #145, #122, #10 ) ) ;
#33 = PRODUCT_DEFINITION_SHAPE ( 'NONE', 'NONE',  #178 ) ;
#34 = COORDINATED_UNIVERSAL_TIME_OFFSET ( 1, 0, .AHEAD. ) ;
#35 = ORIENTED_EDGE ( 'NONE', *, *, #164, .T. ) ;
#36 = UNCERTAINTY_MEASURE_WITH_UNIT (LENGTH_MEASURE( 1.000000000000000100E-005 ), #163, 'distance_accuracy_value', 'NONE');
#37 = DIRECTION ( 'NONE',  ( 0.0000000000000000000, -0.0000000000000000000, 1.000000000000000000 ) ) ;
#38 = FACE_OUTER_BOUND ( 'NONE', #71, .T. ) ;
#39 = AXIS2_PLACEMENT_3D ( 'NONE', #175, #46, #120 ) ;
#40 = ORGANIZATION ( 'UNSPECIFIED', 'UNSPECIFIED', '' ) ;
#41 = CYLINDRICAL_SURFACE ( 'NONE', #187, 21.39999999999999900 ) ;
#42 = VECTOR ( 'NONE', #1, 1000.000000000000000 ) ;
#43 = VERTEX_POINT ( 'NONE', #170 ) ;
#44 = DIRECTION ( 'NONE',  ( 0.0000000000000000000, 0.0000000000000000000, 1.000000000000000000 ) ) ;
#45 = DIRECTION ( 'NONE',  ( 0.0000000000000000000, 0.0000000000000000000, 1.000000000000000000 ) ) ;
#46 = DIRECTION ( 'NONE',  ( 0.0000000000000000000, -1.000000000000000000, 0.0000000000000000000 ) ) ;
#47 = PERSON_AND_ORGANIZATION ( #125, #40 ) ;
#48 = DIRECTION ( 'NONE',  ( -1.224646799147353200E-016, 0.0000000000000000000, 1.000000000000000000 ) ) ;
#49 = APPLICATION_PROTOCOL_DEFINITION ( 'international standard', 'config_control_design', 1994, #93 ) ;
#50 = APPROVAL ( #51, 'UNSPECIFIED' ) ;
#51 = APPROVAL_STATUS ( 'not_yet_approved' ) ;
#52 = LOCAL_TIME ( 12, 2, 3.000000000000000000, #99 ) ;
#53 = SECURITY_CLASSIFICATION_LEVEL ( 'unclassified' ) ;
#54 = ADVANCED_FACE ( 'NONE', ( #11 ), #41, .F. ) ;
#55 = MANIFOLD_SOLID_BREP ( 'Cut-Extrude1', #32 ) ;
#56 = APPROVAL_DATE_TIME ( #58, #50 ) ;
#57 = FACE_OUTER_BOUND ( 'NONE', #186, .T. ) ;
#58 = DATE_AND_TIME ( #138, #52 ) ;
#59 = CARTESIAN_POINT ( 'NONE',  ( 0.0000000000000000000, 0.0000000000000000000, 0.0000000000000000000 ) ) ;
#60 = DIRECTION ( 'NONE',  ( 1.000000000000000000, 0.0000000000000000000, 0.0000000000000000000 ) ) ;
#61 = LOCAL_TIME ( 12, 2, 3.000000000000000000, #146 ) ;
#62 = ORIENTED_EDGE ( 'NONE', *, *, #20, .F. ) ;
#63 = LOCAL_TIME ( 12, 2, 3.000000000000000000, #172 ) ;
#64 = APPROVAL_ROLE ( '' ) ;
#65 = APPROVAL_STATUS ( 'not_yet_approved' ) ;
#66 = APPROVAL_PERSON_ORGANIZATION ( #165, #95, #201 ) ;
#67 = CARTESIAN_POINT ( 'NONE',  ( 0.0000000000000000000, 145.0000000000000000, 0.0000000000000000000 ) ) ;
#68 = DESIGN_CONTEXT ( 'detailed design', #93, 'design' ) ;
#69 = PERSON_AND_ORGANIZATION ( #125, #40 ) ;
#70 = ORIENTED_EDGE ( 'NONE', *, *, #5, .F. ) ;
#71 = EDGE_LOOP ( 'NONE', ( #140, #190, #81 ) ) ;
#72 = CARTESIAN_POINT ( 'NONE',  ( 0.0000000000000000000, 0.0000000000000000000, 0.0000000000000000000 ) ) ;
#73 = CARTESIAN_POINT ( 'NONE',  ( 0.0000000000000000000, 145.0000000000000000, 0.0000000000000000000 ) ) ;
#74 = AXIS2_PLACEMENT_3D ( 'NONE', #75, #31, #152 ) ;
#75 = CARTESIAN_POINT ( 'NONE',  ( 0.0000000000000000000, 145.0000000000000000, 0.0000000000000000000 ) ) ;
#76 = CARTESIAN_POINT ( 'NONE',  ( 0.0000000000000000000, 0.0000000000000000000, 0.0000000000000000000 ) ) ;
#77 = CC_DESIGN_SECURITY_CLASSIFICATION ( #143, ( #14 ) ) ;
#78 = PERSON_AND_ORGANIZATION_ROLE ( 'design_owner' ) ;
#79 = DIRECTION ( 'NONE',  ( 1.000000000000000000, 0.0000000000000000000, 0.0000000000000000000 ) ) ;
#80 = CC_DESIGN_APPROVAL ( #50, ( #14 ) ) ;
#81 = ORIENTED_EDGE ( 'NONE', *, *, #82, .T. ) ;
#82 = EDGE_CURVE ( 'NONE', #43, #159, #89, .T. ) ;
#83 = LINE ( 'NONE', #191, #136 ) ;
#84 = VERTEX_POINT ( 'NONE', #90 ) ;
#85 = ORIENTED_EDGE ( 'NONE', *, *, #154, .F. ) ;
#86 = LOCAL_TIME ( 12, 2, 3.000000000000000000, #34 ) ;
#87 = CARTESIAN_POINT ( 'NONE',  ( 2.620744150175335900E-015, 145.0000000000000000, 21.39999999999999900 ) ) ;
#88 = FACE_OUTER_BOUND ( 'NONE', #108, .T. ) ;
#89 = CIRCLE ( 'NONE', #114, 250.0000000000000000 ) ;
#90 = CARTESIAN_POINT ( 'NONE',  ( 0.0000000000000000000, 145.0000000000000000, -21.39999999999999900 ) ) ;
#91 = DIRECTION ( 'NONE',  ( -1.000000000000000000, -0.0000000000000000000, -1.224646799147353200E-016 ) ) ;
#92 = AXIS2_PLACEMENT_3D ( 'NONE', #123, #105, #192 ) ;
#93 = APPLICATION_CONTEXT ( 'configuration controlled 3d designs of mechanical parts and assemblies' ) ;
#94 = APPROVAL_STATUS ( 'not_yet_approved' ) ;
#95 = APPROVAL ( #65, 'UNSPECIFIED' ) ;
#96 = CIRCLE ( 'NONE', #102, 21.39999999999999900 ) ;
#97 = ORIENTED_EDGE ( 'NONE', *, *, #82, .F. ) ;
#98 = DIRECTION ( 'NONE',  ( 0.0000000000000000000, -1.000000000000000000, 0.0000000000000000000 ) ) ;
#99 = COORDINATED_UNIVERSAL_TIME_OFFSET ( 1, 0, .AHEAD. ) ;
#100 = APPROVAL_PERSON_ORGANIZATION ( #69, #50, #64 ) ;
#101 = ORIENTED_EDGE ( 'NONE', *, *, #5, .T. ) ;
#102 = AXIS2_PLACEMENT_3D ( 'NONE', #73, #139, #44 ) ;
#103 = PERSON_AND_ORGANIZATION ( #125, #40 ) ;
#104 = DIRECTION ( 'NONE',  ( 0.0000000000000000000, 0.0000000000000000000, -1.000000000000000000 ) ) ;
#105 = DIRECTION ( 'NONE',  ( 0.0000000000000000000, 1.000000000000000000, 0.0000000000000000000 ) ) ;
#106 =( NAMED_UNIT ( * ) PLANE_ANGLE_UNIT ( ) SI_UNIT ( $, .RADIAN. ) );
#107 = CALENDAR_DATE ( 2017, 2, 10 ) ;
#108 = EDGE_LOOP ( 'NONE', ( #35, #158, #97 ) ) ;
#109 = CARTESIAN_POINT ( 'NONE',  ( 0.0000000000000000000, -249.0823960058197000, 0.0000000000000000000 ) ) ;
#110 = CARTESIAN_POINT ( 'NONE',  ( 2.620744150175335900E-015, 145.0000000000000000, 21.39999999999999900 ) ) ;
#111 = ORIENTED_EDGE ( 'NONE', *, *, #147, .F. ) ;
#112 = CIRCLE ( 'NONE', #74, 21.39999999999999900 ) ;
#113 = PRODUCT_RELATED_PRODUCT_CATEGORY ( 'detail', '', ( #121 ) ) ;
#114 = AXIS2_PLACEMENT_3D ( 'NONE', #76, #60, #188 ) ;
#115 = CC_DESIGN_APPROVAL ( #16, ( #143 ) ) ;
#116 = CC_DESIGN_PERSON_AND_ORGANIZATION_ASSIGNMENT ( #47, #155, ( #14 ) ) ;
#117 = PERSON_AND_ORGANIZATION ( #125, #40 ) ;
#118 = LINE ( 'NONE', #110, #42 ) ;
#119 = EDGE_CURVE ( 'NONE', #130, #159, #137, .T. ) ;
#120 = DIRECTION ( 'NONE',  ( 0.0000000000000000000, 0.0000000000000000000, -1.000000000000000000 ) ) ;
#121 = PRODUCT ( 'Ball 500', 'Ball 500', '', ( #127 ) ) ;
#122 = ADVANCED_FACE ( 'NONE', ( #4 ), #148, .F. ) ;
#123 = CARTESIAN_POINT ( 'NONE',  ( 0.0000000000000000000, -249.0823960058197000, 0.0000000000000000000 ) ) ;
#124 = ORIENTED_EDGE ( 'NONE', *, *, #164, .F. ) ;
#125 = PERSON ( 'UNSPECIFIED', 'UNSPECIFIED', 'UNSPECIFIED', ('UNSPECIFIED'), ('UNSPECIFIED'), ('UNSPECIFIED') ) ;
#126 = CARTESIAN_POINT ( 'NONE',  ( 0.0000000000000000000, 0.0000000000000000000, 0.0000000000000000000 ) ) ;
#127 = MECHANICAL_CONTEXT ( 'NONE', #196, 'mechanical' ) ;
#128 = LOCAL_TIME ( 12, 2, 3.000000000000000000, #189 ) ;
#129 = DIRECTION ( 'NONE',  ( 0.0000000000000000000, 0.0000000000000000000, 1.000000000000000000 ) ) ;
#130 = VERTEX_POINT ( 'NONE', #153 ) ;
#131 = PERSON_AND_ORGANIZATION_ROLE ( 'design_supplier' ) ;
#132 = CC_DESIGN_APPROVAL ( #95, ( #178 ) ) ;
#133 = DATE_AND_TIME ( #22, #61 ) ;
#134 = CC_DESIGN_PERSON_AND_ORGANIZATION_ASSIGNMENT ( #25, #131, ( #14 ) ) ;
#135 = CC_DESIGN_PERSON_AND_ORGANIZATION_ASSIGNMENT ( #103, #78, ( #121 ) ) ;
#136 = VECTOR ( 'NONE', #193, 1000.000000000000000 ) ;
#137 = CIRCLE ( 'NONE', #194, 250.0000000000000000 ) ;
#138 = CALENDAR_DATE ( 2017, 2, 10 ) ;
#139 = DIRECTION ( 'NONE',  ( 0.0000000000000000000, 1.000000000000000000, 0.0000000000000000000 ) ) ;
#140 = ORIENTED_EDGE ( 'NONE', *, *, #119, .F. ) ;
#141 = DIRECTION ( 'NONE',  ( -1.000000000000000000, 0.0000000000000000000, -0.0000000000000000000 ) ) ;
#142 = DATE_TIME_ROLE ( 'creation_date' ) ;
#143 = SECURITY_CLASSIFICATION ( '', '', #53 ) ;
#144 = CC_DESIGN_PERSON_AND_ORGANIZATION_ASSIGNMENT ( #197, #195, ( #178 ) ) ;
#145 = ADVANCED_FACE ( 'NONE', ( #38 ), #182, .T. ) ;
#146 = COORDINATED_UNIVERSAL_TIME_OFFSET ( 1, 0, .AHEAD. ) ;
#147 = EDGE_CURVE ( 'NONE', #161, #84, #112, .T. ) ;
#148 = CYLINDRICAL_SURFACE ( 'NONE', #39, 21.39999999999999900 ) ;
#149 = APPROVAL_PERSON_ORGANIZATION ( #179, #16, #199 ) ;
#150 = EDGE_LOOP ( 'NONE', ( #70, #174, #2, #62 ) ) ;
#151 = CC_DESIGN_PERSON_AND_ORGANIZATION_ASSIGNMENT ( #117, #168, ( #143 ) ) ;
#152 = DIRECTION ( 'NONE',  ( 0.0000000000000000000, 0.0000000000000000000, 1.000000000000000000 ) ) ;
#153 = CARTESIAN_POINT ( 'NONE',  ( -2.620744150175346100E-015, -249.0823960058197000, 21.40000000000008400 ) ) ;
#154 = EDGE_CURVE ( 'NONE', #84, #43, #83, .T. ) ;
#155 = PERSON_AND_ORGANIZATION_ROLE ( 'creator' ) ;
#156 = APPLICATION_PROTOCOL_DEFINITION ( 'international standard', 'config_control_design', 1994, #196 ) ;
#157 = CIRCLE ( 'NONE', #26, 21.39999999999999900 ) ;
#158 = ORIENTED_EDGE ( 'NONE', *, *, #119, .T. ) ;
#159 = VERTEX_POINT ( 'NONE', #162 ) ;
#160 = AXIS2_PLACEMENT_3D ( 'NONE', #126, #129, #79 ) ;
#161 = VERTEX_POINT ( 'NONE', #87 ) ;
#162 = CARTESIAN_POINT ( 'NONE',  ( 0.0000000000000000000, 250.0000000000000000, -1.530808498934191600E-014 ) ) ;
#163 =( LENGTH_UNIT ( ) NAMED_UNIT ( * ) SI_UNIT ( .MILLI., .METRE. ) );
#164 = EDGE_CURVE ( 'NONE', #43, #130, #9, .T. ) ;
#165 = PERSON_AND_ORGANIZATION ( #125, #40 ) ;
#166 = DIRECTION ( 'NONE',  ( 0.0000000000000000000, 0.0000000000000000000, -1.000000000000000000 ) ) ;
#167 = CC_DESIGN_DATE_AND_TIME_ASSIGNMENT ( #15, #180, ( #143 ) ) ;
#168 = PERSON_AND_ORGANIZATION_ROLE ( 'classification_officer' ) ;
#169 = EDGE_CURVE ( 'NONE', #84, #161, #96, .T. ) ;
#170 = CARTESIAN_POINT ( 'NONE',  ( 0.0000000000000000000, -249.0823960058197000, -21.40000000000008400 ) ) ;
#171 = CARTESIAN_POINT ( 'NONE',  ( 0.0000000000000000000, 145.0000000000000000, 0.0000000000000000000 ) ) ;
#172 = COORDINATED_UNIVERSAL_TIME_OFFSET ( 1, 0, .AHEAD. ) ;
#173 = SPHERICAL_SURFACE ( 'NONE', #23, 250.0000000000000000 ) ;
#174 = ORIENTED_EDGE ( 'NONE', *, *, #147, .T. ) ;
#175 = CARTESIAN_POINT ( 'NONE',  ( 0.0000000000000000000, 145.0000000000000000, 0.0000000000000000000 ) ) ;
#176 =( NAMED_UNIT ( * ) SI_UNIT ( $, .STERADIAN. ) SOLID_ANGLE_UNIT ( ) );
#177 = AXIS2_PLACEMENT_3D ( 'NONE', #171, #21, #37 ) ;
#178 = PRODUCT_DEFINITION ( 'UNKNOWN', '', #14, #68 ) ;
#179 = PERSON_AND_ORGANIZATION ( #125, #40 ) ;
#180 = DATE_TIME_ROLE ( 'classification_date' ) ;
#181 = DATE_AND_TIME ( #107, #63 ) ;
#182 = SPHERICAL_SURFACE ( 'NONE', #7, 250.0000000000000000 ) ;
#183 =( GEOMETRIC_REPRESENTATION_CONTEXT ( 3 ) GLOBAL_UNCERTAINTY_ASSIGNED_CONTEXT ( ( #36 ) ) GLOBAL_UNIT_ASSIGNED_CONTEXT ( ( #163, #106, #176 ) ) REPRESENTATION_CONTEXT ( 'NONE', 'WORKASPACE' ) );
#184 = DATE_AND_TIME ( #17, #128 ) ;
#185 = CC_DESIGN_DATE_AND_TIME_ASSIGNMENT ( #133, #142, ( #178 ) ) ;
#186 = EDGE_LOOP ( 'NONE', ( #198, #111 ) ) ;
#187 = AXIS2_PLACEMENT_3D ( 'NONE', #67, #98, #166 ) ;
#188 = DIRECTION ( 'NONE',  ( 0.0000000000000000000, 0.0000000000000000000, -1.000000000000000000 ) ) ;
#189 = COORDINATED_UNIVERSAL_TIME_OFFSET ( 1, 0, .AHEAD. ) ;
#190 = ORIENTED_EDGE ( 'NONE', *, *, #20, .T. ) ;
#191 = CARTESIAN_POINT ( 'NONE',  ( 0.0000000000000000000, 145.0000000000000000, -21.39999999999999900 ) ) ;
#192 = DIRECTION ( 'NONE',  ( 0.0000000000000000000, 0.0000000000000000000, 1.000000000000000000 ) ) ;
#193 = DIRECTION ( 'NONE',  ( 0.0000000000000000000, -1.000000000000000000, 0.0000000000000000000 ) ) ;
#194 = AXIS2_PLACEMENT_3D ( 'NONE', #59, #91, #48 ) ;
#195 = PERSON_AND_ORGANIZATION_ROLE ( 'creator' ) ;
#196 = APPLICATION_CONTEXT ( 'configuration controlled 3d designs of mechanical parts and assemblies' ) ;
#197 = PERSON_AND_ORGANIZATION ( #125, #40 ) ;
#198 = ORIENTED_EDGE ( 'NONE', *, *, #169, .F. ) ;
#199 = APPROVAL_ROLE ( '' ) ;
#200 = ADVANCED_FACE ( 'NONE', ( #88 ), #173, .T. ) ;
#201 = APPROVAL_ROLE ( '' ) ;
ENDSEC;
END-ISO-10303-21;
