ISO-10303-21;
HEADER;
FILE_DESCRIPTION (( 'STEP AP203' ),
    '1' );
FILE_NAME ('Ball 695.STEP',
    '2017-09-26T14:35:17',
    ( '' ),
    ( '' ),
    'SwSTEP 2.0',
    'SolidWorks 2016',
    '' );
FILE_SCHEMA (( 'CONFIG_CONTROL_DESIGN' ));
ENDSEC;

DATA;
#1 = ORIENTED_EDGE ( 'NONE', *, *, #102, .T. ) ;
#2 = DIRECTION ( 'NONE',  ( 0.0000000000000000000, 1.000000000000000000, 0.0000000000000000000 ) ) ;
#3 = DATE_AND_TIME ( #200, #48 ) ;
#4 = CIRCLE ( 'NONE', #89, 21.39999999999999900 ) ;
#5 = CARTESIAN_POINT ( 'NONE',  ( 0.0000000000000000000, 147.5000000000000000, 0.0000000000000000000 ) ) ;
#6 = CARTESIAN_POINT ( 'NONE',  ( 0.0000000000000000000, 147.5000000000000000, 0.0000000000000000000 ) ) ;
#7 = ORIENTED_EDGE ( 'NONE', *, *, #102, .F. ) ;
#8 = APPROVAL_PERSON_ORGANIZATION ( #53, #147, #109 ) ;
#9 = VECTOR ( 'NONE', #159, 1000.000000000000000 ) ;
#10 = ORIENTED_EDGE ( 'NONE', *, *, #162, .F. ) ;
#11 = FACE_OUTER_BOUND ( 'NONE', #154, .T. ) ;
#12 = EDGE_CURVE ( 'NONE', #29, #35, #187, .T. ) ;
#13 = SHAPE_DEFINITION_REPRESENTATION ( #91, #110 ) ;
#14 = CC_DESIGN_APPROVAL ( #64, ( #113 ) ) ;
#15 = CARTESIAN_POINT ( 'NONE',  ( 0.0000000000000000000, -346.8404388187744300, 0.0000000000000000000 ) ) ;
#16 = ORIENTED_EDGE ( 'NONE', *, *, #75, .F. ) ;
#17 = SPHERICAL_SURFACE ( 'NONE', #157, 347.5000000000000000 ) ;
#18 = AXIS2_PLACEMENT_3D ( 'NONE', #21, #84, #20 ) ;
#19 = DATE_AND_TIME ( #175, #97 ) ;
#20 = DIRECTION ( 'NONE',  ( 0.0000000000000000000, 0.0000000000000000000, -1.000000000000000000 ) ) ;
#21 = CARTESIAN_POINT ( 'NONE',  ( 0.0000000000000000000, 147.5000000000000000, 0.0000000000000000000 ) ) ;
#22 = FACE_OUTER_BOUND ( 'NONE', #56, .T. ) ;
#23 = EDGE_CURVE ( 'NONE', #160, #104, #4, .T. ) ;
#24 =( NAMED_UNIT ( * ) SI_UNIT ( $, .STERADIAN. ) SOLID_ANGLE_UNIT ( ) );
#25 = MECHANICAL_CONTEXT ( 'NONE', #194, 'mechanical' ) ;
#26 = LINE ( 'NONE', #52, #9 ) ;
#27 =( NAMED_UNIT ( * ) PLANE_ANGLE_UNIT ( ) SI_UNIT ( $, .RADIAN. ) );
#28 =( LENGTH_UNIT ( ) NAMED_UNIT ( * ) SI_UNIT ( .MILLI., .METRE. ) );
#29 = VERTEX_POINT ( 'NONE', #66 ) ;
#30 = SPHERICAL_SURFACE ( 'NONE', #61, 347.5000000000000000 ) ;
#31 = PRODUCT_DEFINITION ( 'UNKNOWN', '', #113, #126 ) ;
#32 = UNCERTAINTY_MEASURE_WITH_UNIT (LENGTH_MEASURE( 1.000000000000000100E-005 ), #28, 'distance_accuracy_value', 'NONE');
#33 = APPROVAL ( #183, 'UNSPECIFIED' ) ;
#34 = DIRECTION ( 'NONE',  ( 0.0000000000000000000, 0.0000000000000000000, 1.000000000000000000 ) ) ;
#35 = VERTEX_POINT ( 'NONE', #114 ) ;
#36 = DIRECTION ( 'NONE',  ( 0.0000000000000000000, 0.0000000000000000000, 1.000000000000000000 ) ) ;
#37 = CARTESIAN_POINT ( 'NONE',  ( 0.0000000000000000000, 0.0000000000000000000, 0.0000000000000000000 ) ) ;
#38 = PLANE ( 'NONE',  #197 ) ;
#39 = DIRECTION ( 'NONE',  ( -1.000000000000000000, 0.0000000000000000000, -0.0000000000000000000 ) ) ;
#40 = EDGE_LOOP ( 'NONE', ( #199, #172 ) ) ;
#41 = PERSON_AND_ORGANIZATION ( #50, #195 ) ;
#42 = DIRECTION ( 'NONE',  ( -1.000000000000000000, -0.0000000000000000000, -1.224646799147353200E-016 ) ) ;
#43 = CC_DESIGN_DATE_AND_TIME_ASSIGNMENT ( #180, #74, ( #31 ) ) ;
#44 = APPROVAL_STATUS ( 'not_yet_approved' ) ;
#45 = CC_DESIGN_SECURITY_CLASSIFICATION ( #72, ( #113 ) ) ;
#46 = ORIENTED_EDGE ( 'NONE', *, *, #139, .T. ) ;
#47 = AXIS2_PLACEMENT_3D ( 'NONE', #6, #178, #85 ) ;
#48 = LOCAL_TIME ( 16, 35, 17.00000000000000000, #88 ) ;
#49 = LOCAL_TIME ( 16, 35, 17.00000000000000000, #144 ) ;
#50 = PERSON ( 'UNSPECIFIED', 'UNSPECIFIED', 'UNSPECIFIED', ('UNSPECIFIED'), ('UNSPECIFIED'), ('UNSPECIFIED') ) ;
#51 = CALENDAR_DATE ( 2017, 26, 9 ) ;
#52 = CARTESIAN_POINT ( 'NONE',  ( 0.0000000000000000000, 147.5000000000000000, -21.39999999999999900 ) ) ;
#53 = PERSON_AND_ORGANIZATION ( #50, #195 ) ;
#54 = CARTESIAN_POINT ( 'NONE',  ( 2.620744150175335900E-015, 147.5000000000000000, 21.39999999999999900 ) ) ;
#55 = ORIENTED_EDGE ( 'NONE', *, *, #75, .T. ) ;
#56 = EDGE_LOOP ( 'NONE', ( #46, #95, #133 ) ) ;
#57 = DIRECTION ( 'NONE',  ( 0.0000000000000000000, 0.0000000000000000000, 1.000000000000000000 ) ) ;
#58 = APPLICATION_CONTEXT ( 'configuration controlled 3d designs of mechanical parts and assemblies' ) ;
#59 = APPROVAL_ROLE ( '' ) ;
#60 = CIRCLE ( 'NONE', #188, 347.5000000000000000 ) ;
#61 = AXIS2_PLACEMENT_3D ( 'NONE', #134, #179, #86 ) ;
#62 = ORIENTED_EDGE ( 'NONE', *, *, #139, .F. ) ;
#63 = PERSON_AND_ORGANIZATION ( #50, #195 ) ;
#64 = APPROVAL ( #140, 'UNSPECIFIED' ) ;
#65 = MANIFOLD_SOLID_BREP ( 'Cut-Extrude1', #141 ) ;
#66 = CARTESIAN_POINT ( 'NONE',  ( -2.620744150175326800E-015, -346.8404388187744300, 21.39999999999992400 ) ) ;
#67 = CARTESIAN_POINT ( 'NONE',  ( 0.0000000000000000000, 147.5000000000000000, 0.0000000000000000000 ) ) ;
#68 = AXIS2_PLACEMENT_3D ( 'NONE', #170, #122, #196 ) ;
#69 = CC_DESIGN_PERSON_AND_ORGANIZATION_ASSIGNMENT ( #173, #73, ( #113 ) ) ;
#70 = CARTESIAN_POINT ( 'NONE',  ( 0.0000000000000000000, 0.0000000000000000000, 0.0000000000000000000 ) ) ;
#71 = PERSON_AND_ORGANIZATION_ROLE ( 'classification_officer' ) ;
#72 = SECURITY_CLASSIFICATION ( '', '', #137 ) ;
#73 = PERSON_AND_ORGANIZATION_ROLE ( 'design_supplier' ) ;
#74 = DATE_TIME_ROLE ( 'creation_date' ) ;
#75 = EDGE_CURVE ( 'NONE', #104, #35, #26, .T. ) ;
#76 = EDGE_LOOP ( 'NONE', ( #10, #92, #124 ) ) ;
#77 = CALENDAR_DATE ( 2017, 26, 9 ) ;
#78 = CYLINDRICAL_SURFACE ( 'NONE', #164, 21.39999999999999900 ) ;
#79 = APPROVAL_PERSON_ORGANIZATION ( #125, #33, #59 ) ;
#80 = ADVANCED_FACE ( 'NONE', ( #11 ), #168, .F. ) ;
#81 = DATE_AND_TIME ( #51, #49 ) ;
#82 = CC_DESIGN_PERSON_AND_ORGANIZATION_ASSIGNMENT ( #129, #71, ( #72 ) ) ;
#83 = DIRECTION ( 'NONE',  ( 0.0000000000000000000, 1.000000000000000000, 0.0000000000000000000 ) ) ;
#84 = DIRECTION ( 'NONE',  ( 0.0000000000000000000, -1.000000000000000000, 0.0000000000000000000 ) ) ;
#85 = DIRECTION ( 'NONE',  ( 0.0000000000000000000, 0.0000000000000000000, 1.000000000000000000 ) ) ;
#86 = DIRECTION ( 'NONE',  ( 0.0000000000000000000, 0.0000000000000000000, -1.000000000000000000 ) ) ;
#87 = CARTESIAN_POINT ( 'NONE',  ( 0.0000000000000000000, 147.5000000000000000, 0.0000000000000000000 ) ) ;
#88 = COORDINATED_UNIVERSAL_TIME_OFFSET ( 1, 0, .AHEAD. ) ;
#89 = AXIS2_PLACEMENT_3D ( 'NONE', #67, #2, #36 ) ;
#90 = AXIS2_PLACEMENT_3D ( 'NONE', #37, #149, #132 ) ;
#91 = PRODUCT_DEFINITION_SHAPE ( 'NONE', 'NONE',  #31 ) ;
#92 = ORIENTED_EDGE ( 'NONE', *, *, #12, .T. ) ;
#93 = PERSON_AND_ORGANIZATION ( #50, #195 ) ;
#94 = PRODUCT ( 'Ball 695', 'Ball 695', '', ( #25 ) ) ;
#95 = ORIENTED_EDGE ( 'NONE', *, *, #162, .T. ) ;
#96 = ADVANCED_FACE ( 'NONE', ( #108 ), #17, .T. ) ;
#97 = LOCAL_TIME ( 16, 35, 17.00000000000000000, #156 ) ;
#98 = CC_DESIGN_PERSON_AND_ORGANIZATION_ASSIGNMENT ( #41, #198, ( #94 ) ) ;
#99 = PRODUCT_RELATED_PRODUCT_CATEGORY ( 'detail', '', ( #94 ) ) ;
#100 = CALENDAR_DATE ( 2017, 26, 9 ) ;
#101 = DIRECTION ( 'NONE',  ( 0.0000000000000000000, 0.0000000000000000000, -1.000000000000000000 ) ) ;
#102 = EDGE_CURVE ( 'NONE', #160, #29, #146, .T. ) ;
#103 = DIRECTION ( 'NONE',  ( 0.0000000000000000000, -1.000000000000000000, 0.0000000000000000000 ) ) ;
#104 = VERTEX_POINT ( 'NONE', #163 ) ;
#105 = CC_DESIGN_APPROVAL ( #147, ( #31 ) ) ;
#106 = APPROVAL_DATE_TIME ( #81, #64 ) ;
#107 = APPROVAL_ROLE ( '' ) ;
#108 = FACE_OUTER_BOUND ( 'NONE', #76, .T. ) ;
#109 = APPROVAL_ROLE ( '' ) ;
#110 = ADVANCED_BREP_SHAPE_REPRESENTATION ( 'Ball 695', ( #65, #68 ), #190 ) ;
#111 = FACE_OUTER_BOUND ( 'NONE', #166, .T. ) ;
#112 = CC_DESIGN_PERSON_AND_ORGANIZATION_ASSIGNMENT ( #176, #169, ( #31 ) ) ;
#113 = PRODUCT_DEFINITION_FORMATION_WITH_SPECIFIED_SOURCE ( 'ANY', '', #94, .NOT_KNOWN. ) ;
#114 = CARTESIAN_POINT ( 'NONE',  ( 0.0000000000000000000, -346.8404388187744300, -21.39999999999992400 ) ) ;
#115 = VERTEX_POINT ( 'NONE', #148 ) ;
#116 = CARTESIAN_POINT ( 'NONE',  ( 0.0000000000000000000, -346.8404388187744300, 0.0000000000000000000 ) ) ;
#117 = EDGE_CURVE ( 'NONE', #35, #115, #119, .T. ) ;
#118 = APPROVAL_DATE_TIME ( #155, #33 ) ;
#119 = CIRCLE ( 'NONE', #90, 347.5000000000000000 ) ;
#120 = CARTESIAN_POINT ( 'NONE',  ( 0.0000000000000000000, 0.0000000000000000000, 0.0000000000000000000 ) ) ;
#121 = CC_DESIGN_APPROVAL ( #33, ( #72 ) ) ;
#122 = DIRECTION ( 'NONE',  ( 0.0000000000000000000, 0.0000000000000000000, 1.000000000000000000 ) ) ;
#123 = CC_DESIGN_PERSON_AND_ORGANIZATION_ASSIGNMENT ( #63, #136, ( #113 ) ) ;
#124 = ORIENTED_EDGE ( 'NONE', *, *, #117, .T. ) ;
#125 = PERSON_AND_ORGANIZATION ( #50, #195 ) ;
#126 = DESIGN_CONTEXT ( 'detailed design', #58, 'design' ) ;
#127 = ORIENTED_EDGE ( 'NONE', *, *, #12, .F. ) ;
#128 = ADVANCED_FACE ( 'NONE', ( #22 ), #30, .T. ) ;
#129 = PERSON_AND_ORGANIZATION ( #50, #195 ) ;
#130 = APPROVAL_PERSON_ORGANIZATION ( #93, #64, #107 ) ;
#131 = CARTESIAN_POINT ( 'NONE',  ( 2.620744150175335900E-015, 147.5000000000000000, 21.39999999999999900 ) ) ;
#132 = DIRECTION ( 'NONE',  ( 0.0000000000000000000, 0.0000000000000000000, -1.000000000000000000 ) ) ;
#133 = ORIENTED_EDGE ( 'NONE', *, *, #117, .F. ) ;
#134 = CARTESIAN_POINT ( 'NONE',  ( 0.0000000000000000000, 0.0000000000000000000, 0.0000000000000000000 ) ) ;
#135 = COORDINATED_UNIVERSAL_TIME_OFFSET ( 1, 0, .AHEAD. ) ;
#136 = PERSON_AND_ORGANIZATION_ROLE ( 'creator' ) ;
#137 = SECURITY_CLASSIFICATION_LEVEL ( 'unclassified' ) ;
#138 = APPLICATION_PROTOCOL_DEFINITION ( 'international standard', 'config_control_design', 1994, #194 ) ;
#139 = EDGE_CURVE ( 'NONE', #35, #29, #186, .T. ) ;
#140 = APPROVAL_STATUS ( 'not_yet_approved' ) ;
#141 = CLOSED_SHELL ( 'NONE', ( #80, #128, #96, #201, #143 ) ) ;
#142 = LOCAL_TIME ( 16, 35, 17.00000000000000000, #135 ) ;
#143 = ADVANCED_FACE ( 'NONE', ( #191 ), #38, .F. ) ;
#144 = COORDINATED_UNIVERSAL_TIME_OFFSET ( 1, 0, .AHEAD. ) ;
#145 = CC_DESIGN_DATE_AND_TIME_ASSIGNMENT ( #3, #181, ( #72 ) ) ;
#146 = LINE ( 'NONE', #131, #161 ) ;
#147 = APPROVAL ( #44, 'UNSPECIFIED' ) ;
#148 = CARTESIAN_POINT ( 'NONE',  ( 0.0000000000000000000, 347.5000000000000000, -2.127823813518526000E-014 ) ) ;
#149 = DIRECTION ( 'NONE',  ( 1.000000000000000000, 0.0000000000000000000, 0.0000000000000000000 ) ) ;
#150 = DIRECTION ( 'NONE',  ( 0.0000000000000000000, 0.0000000000000000000, -1.000000000000000000 ) ) ;
#151 = EDGE_CURVE ( 'NONE', #104, #160, #152, .T. ) ;
#152 = CIRCLE ( 'NONE', #47, 21.39999999999999900 ) ;
#153 = DIRECTION ( 'NONE',  ( -1.224646799147353200E-016, 0.0000000000000000000, 1.000000000000000000 ) ) ;
#154 = EDGE_LOOP ( 'NONE', ( #193, #1, #62, #16 ) ) ;
#155 = DATE_AND_TIME ( #77, #185 ) ;
#156 = COORDINATED_UNIVERSAL_TIME_OFFSET ( 1, 0, .AHEAD. ) ;
#157 = AXIS2_PLACEMENT_3D ( 'NONE', #70, #39, #101 ) ;
#158 = DIRECTION ( 'NONE',  ( 0.0000000000000000000, 1.000000000000000000, 0.0000000000000000000 ) ) ;
#159 = DIRECTION ( 'NONE',  ( 0.0000000000000000000, -1.000000000000000000, 0.0000000000000000000 ) ) ;
#160 = VERTEX_POINT ( 'NONE', #54 ) ;
#161 = VECTOR ( 'NONE', #177, 1000.000000000000000 ) ;
#162 = EDGE_CURVE ( 'NONE', #29, #115, #60, .T. ) ;
#163 = CARTESIAN_POINT ( 'NONE',  ( 0.0000000000000000000, 147.5000000000000000, -21.39999999999999900 ) ) ;
#164 = AXIS2_PLACEMENT_3D ( 'NONE', #87, #103, #150 ) ;
#165 = DIRECTION ( 'NONE',  ( 0.0000000000000000000, -0.0000000000000000000, 1.000000000000000000 ) ) ;
#166 = EDGE_LOOP ( 'NONE', ( #7, #189, #55, #127 ) ) ;
#167 = COORDINATED_UNIVERSAL_TIME_OFFSET ( 1, 0, .AHEAD. ) ;
#168 = CYLINDRICAL_SURFACE ( 'NONE', #18, 21.39999999999999900 ) ;
#169 = PERSON_AND_ORGANIZATION_ROLE ( 'creator' ) ;
#170 = CARTESIAN_POINT ( 'NONE',  ( 0.0000000000000000000, 0.0000000000000000000, 0.0000000000000000000 ) ) ;
#171 = AXIS2_PLACEMENT_3D ( 'NONE', #116, #192, #57 ) ;
#172 = ORIENTED_EDGE ( 'NONE', *, *, #23, .F. ) ;
#173 = PERSON_AND_ORGANIZATION ( #50, #195 ) ;
#174 = AXIS2_PLACEMENT_3D ( 'NONE', #15, #158, #34 ) ;
#175 = CALENDAR_DATE ( 2017, 26, 9 ) ;
#176 = PERSON_AND_ORGANIZATION ( #50, #195 ) ;
#177 = DIRECTION ( 'NONE',  ( 0.0000000000000000000, -1.000000000000000000, 0.0000000000000000000 ) ) ;
#178 = DIRECTION ( 'NONE',  ( 0.0000000000000000000, 1.000000000000000000, 0.0000000000000000000 ) ) ;
#179 = DIRECTION ( 'NONE',  ( -1.000000000000000000, 0.0000000000000000000, -0.0000000000000000000 ) ) ;
#180 = DATE_AND_TIME ( #100, #142 ) ;
#181 = DATE_TIME_ROLE ( 'classification_date' ) ;
#182 = APPROVAL_DATE_TIME ( #19, #147 ) ;
#183 = APPROVAL_STATUS ( 'not_yet_approved' ) ;
#184 = APPLICATION_PROTOCOL_DEFINITION ( 'international standard', 'config_control_design', 1994, #58 ) ;
#185 = LOCAL_TIME ( 16, 35, 17.00000000000000000, #167 ) ;
#186 = CIRCLE ( 'NONE', #171, 21.39999999999999900 ) ;
#187 = CIRCLE ( 'NONE', #174, 21.39999999999999900 ) ;
#188 = AXIS2_PLACEMENT_3D ( 'NONE', #120, #42, #153 ) ;
#189 = ORIENTED_EDGE ( 'NONE', *, *, #23, .T. ) ;
#190 =( GEOMETRIC_REPRESENTATION_CONTEXT ( 3 ) GLOBAL_UNCERTAINTY_ASSIGNED_CONTEXT ( ( #32 ) ) GLOBAL_UNIT_ASSIGNED_CONTEXT ( ( #28, #27, #24 ) ) REPRESENTATION_CONTEXT ( 'NONE', 'WORKASPACE' ) );
#191 = FACE_OUTER_BOUND ( 'NONE', #40, .T. ) ;
#192 = DIRECTION ( 'NONE',  ( 0.0000000000000000000, 1.000000000000000000, 0.0000000000000000000 ) ) ;
#193 = ORIENTED_EDGE ( 'NONE', *, *, #151, .T. ) ;
#194 = APPLICATION_CONTEXT ( 'configuration controlled 3d designs of mechanical parts and assemblies' ) ;
#195 = ORGANIZATION ( 'UNSPECIFIED', 'UNSPECIFIED', '' ) ;
#196 = DIRECTION ( 'NONE',  ( 1.000000000000000000, 0.0000000000000000000, 0.0000000000000000000 ) ) ;
#197 = AXIS2_PLACEMENT_3D ( 'NONE', #5, #83, #165 ) ;
#198 = PERSON_AND_ORGANIZATION_ROLE ( 'design_owner' ) ;
#199 = ORIENTED_EDGE ( 'NONE', *, *, #151, .F. ) ;
#200 = CALENDAR_DATE ( 2017, 26, 9 ) ;
#201 = ADVANCED_FACE ( 'NONE', ( #111 ), #78, .F. ) ;
ENDSEC;
END-ISO-10303-21;
