ISO-10303-21;
HEADER;
FILE_DESCRIPTION (( 'STEP AP203' ),
    '1' );
FILE_NAME ('Half Ball 345.STEP',
    '2017-09-28T08:41:01',
    ( '' ),
    ( '' ),
    'SwSTEP 2.0',
    'SolidWorks 2016',
    '' );
FILE_SCHEMA (( 'CONFIG_CONTROL_DESIGN' ));
ENDSEC;

DATA;
#1 = APPROVAL ( #128, 'UNSPECIFIED' ) ;
#2 = APPROVAL_ROLE ( '' ) ;
#3 = APPROVAL_ROLE ( '' ) ;
#4 = ORIENTED_EDGE ( 'NONE', *, *, #22, .F. ) ;
#5 = APPROVAL_STATUS ( 'not_yet_approved' ) ;
#6 = PERSON_AND_ORGANIZATION ( #142, #38 ) ;
#7 = ORIENTED_EDGE ( 'NONE', *, *, #112, .F. ) ;
#8 = COORDINATED_UNIVERSAL_TIME_OFFSET ( 1, 0, .AHEAD. ) ;
#9 = FACE_OUTER_BOUND ( 'NONE', #221, .T. ) ;
#10 = CC_DESIGN_PERSON_AND_ORGANIZATION_ASSIGNMENT ( #154, #149, ( #49 ) ) ;
#11 = CIRCLE ( 'NONE', #211, 21.39999999999999900 ) ;
#12 = CC_DESIGN_PERSON_AND_ORGANIZATION_ASSIGNMENT ( #103, #109, ( #135 ) ) ;
#13 = ADVANCED_BREP_SHAPE_REPRESENTATION ( 'Half Ball 345', ( #159, #190 ), #43 ) ;
#14 = SHAPE_DEFINITION_REPRESENTATION ( #174, #13 ) ;
#15 = VECTOR ( 'NONE', #64, 1000.000000000000000 ) ;
#16 = CARTESIAN_POINT ( 'NONE',  ( 0.0000000000000000000, 0.0000000000000000000, 0.0000000000000000000 ) ) ;
#17 = CARTESIAN_POINT ( 'NONE',  ( 0.0000000000000000000, 0.0000000000000000000, 0.0000000000000000000 ) ) ;
#18 = DIRECTION ( 'NONE',  ( 0.0000000000000000000, -1.000000000000000000, 0.0000000000000000000 ) ) ;
#19 = LOCAL_TIME ( 10, 41, 1.000000000000000000, #210 ) ;
#20 =( NAMED_UNIT ( * ) PLANE_ANGLE_UNIT ( ) SI_UNIT ( $, .RADIAN. ) );
#21 = CARTESIAN_POINT ( 'NONE',  ( 0.0000000000000000000, 70.00000000000000000, -21.39999999999999900 ) ) ;
#22 = EDGE_CURVE ( 'NONE', #148, #46, #68, .T. ) ;
#23 = APPROVAL_ROLE ( '' ) ;
#24 = CIRCLE ( 'NONE', #81, 172.5000000000000000 ) ;
#25 = ADVANCED_FACE ( 'NONE', ( #181 ), #223, .F. ) ;
#26 = PERSON_AND_ORGANIZATION_ROLE ( 'design_owner' ) ;
#27 = LOCAL_TIME ( 10, 41, 1.000000000000000000, #70 ) ;
#28 = AXIS2_PLACEMENT_3D ( 'NONE', #209, #18, #198 ) ;
#29 = APPROVAL_DATE_TIME ( #75, #1 ) ;
#30 = ORIENTED_EDGE ( 'NONE', *, *, #156, .F. ) ;
#31 = DIRECTION ( 'NONE',  ( 0.0000000000000000000, -0.0000000000000000000, 1.000000000000000000 ) ) ;
#32 = AXIS2_PLACEMENT_3D ( 'NONE', #179, #47, #66 ) ;
#33 = EDGE_CURVE ( 'NONE', #148, #203, #127, .T. ) ;
#34 = CARTESIAN_POINT ( 'NONE',  ( 0.0000000000000000000, 0.0000000000000000000, 0.0000000000000000000 ) ) ;
#35 = CARTESIAN_POINT ( 'NONE',  ( 0.0000000000000000000, 0.0000000000000000000, 0.0000000000000000000 ) ) ;
#36 = EDGE_LOOP ( 'NONE', ( #217, #115 ) ) ;
#37 = DIRECTION ( 'NONE',  ( 0.0000000000000000000, -1.000000000000000000, -0.0000000000000000000 ) ) ;
#38 = ORGANIZATION ( 'UNSPECIFIED', 'UNSPECIFIED', '' ) ;
#39 = ORIENTED_EDGE ( 'NONE', *, *, #201, .F. ) ;
#40 = CC_DESIGN_DATE_AND_TIME_ASSIGNMENT ( #110, #129, ( #135 ) ) ;
#41 = APPROVAL_STATUS ( 'not_yet_approved' ) ;
#42 = VERTEX_POINT ( 'NONE', #176 ) ;
#43 =( GEOMETRIC_REPRESENTATION_CONTEXT ( 3 ) GLOBAL_UNCERTAINTY_ASSIGNED_CONTEXT ( ( #111 ) ) GLOBAL_UNIT_ASSIGNED_CONTEXT ( ( #227, #20, #144 ) ) REPRESENTATION_CONTEXT ( 'NONE', 'WORKASPACE' ) );
#44 = PERSON_AND_ORGANIZATION ( #142, #38 ) ;
#45 = AXIS2_PLACEMENT_3D ( 'NONE', #102, #86, #101 ) ;
#46 = VERTEX_POINT ( 'NONE', #177 ) ;
#47 = DIRECTION ( 'NONE',  ( 0.0000000000000000000, -1.000000000000000000, 0.0000000000000000000 ) ) ;
#48 = PERSON_AND_ORGANIZATION ( #142, #38 ) ;
#49 = PRODUCT_DEFINITION_FORMATION_WITH_SPECIFIED_SOURCE ( 'ANY', '', #192, .NOT_KNOWN. ) ;
#50 = LINE ( 'NONE', #21, #114 ) ;
#51 = DIRECTION ( 'NONE',  ( -1.000000000000000000, 0.0000000000000000000, -0.0000000000000000000 ) ) ;
#52 = DIRECTION ( 'NONE',  ( 0.0000000000000000000, 0.0000000000000000000, 1.000000000000000000 ) ) ;
#53 = APPROVAL_PERSON_ORGANIZATION ( #94, #145, #23 ) ;
#54 = EDGE_CURVE ( 'NONE', #42, #136, #99, .T. ) ;
#55 = DESIGN_CONTEXT ( 'detailed design', #105, 'design' ) ;
#56 = AXIS2_PLACEMENT_3D ( 'NONE', #17, #119, #224 ) ;
#57 = ADVANCED_FACE ( 'NONE', ( #59 ), #139, .F. ) ;
#58 = APPROVAL_DATE_TIME ( #200, #228 ) ;
#59 = FACE_OUTER_BOUND ( 'NONE', #118, .T. ) ;
#60 = SECURITY_CLASSIFICATION_LEVEL ( 'unclassified' ) ;
#61 = AXIS2_PLACEMENT_3D ( 'NONE', #160, #222, #191 ) ;
#62 = ORIENTED_EDGE ( 'NONE', *, *, #201, .T. ) ;
#63 = CIRCLE ( 'NONE', #184, 172.5000000000000000 ) ;
#64 = DIRECTION ( 'NONE',  ( 0.0000000000000000000, -1.000000000000000000, 0.0000000000000000000 ) ) ;
#65 = AXIS2_PLACEMENT_3D ( 'NONE', #162, #196, #185 ) ;
#66 = DIRECTION ( 'NONE',  ( 0.0000000000000000000, 0.0000000000000000000, -1.000000000000000000 ) ) ;
#67 = CALENDAR_DATE ( 2017, 28, 9 ) ;
#68 = LINE ( 'NONE', #153, #15 ) ;
#69 = DIRECTION ( 'NONE',  ( 0.0000000000000000000, 0.0000000000000000000, -1.000000000000000000 ) ) ;
#70 = COORDINATED_UNIVERSAL_TIME_OFFSET ( 1, 0, .AHEAD. ) ;
#71 = DIRECTION ( 'NONE',  ( 0.0000000000000000000, 0.0000000000000000000, 1.000000000000000000 ) ) ;
#72 = ADVANCED_FACE ( 'NONE', ( #218, #150 ), #73, .F. ) ;
#73 = PLANE ( 'NONE',  #45 ) ;
#74 = AXIS2_PLACEMENT_3D ( 'NONE', #205, #117, #96 ) ;
#75 = DATE_AND_TIME ( #131, #27 ) ;
#76 = ORIENTED_EDGE ( 'NONE', *, *, #54, .T. ) ;
#77 = MECHANICAL_CONTEXT ( 'NONE', #166, 'mechanical' ) ;
#78 = ORIENTED_EDGE ( 'NONE', *, *, #147, .F. ) ;
#79 = CLOSED_SHELL ( 'NONE', ( #120, #212, #57, #25, #72, #143 ) ) ;
#80 = ORIENTED_EDGE ( 'NONE', *, *, #206, .T. ) ;
#81 = AXIS2_PLACEMENT_3D ( 'NONE', #138, #37, #85 ) ;
#82 = COORDINATED_UNIVERSAL_TIME_OFFSET ( 1, 0, .AHEAD. ) ;
#83 = ORIENTED_EDGE ( 'NONE', *, *, #178, .T. ) ;
#84 = EDGE_LOOP ( 'NONE', ( #168, #173 ) ) ;
#85 = DIRECTION ( 'NONE',  ( 0.0000000000000000000, 0.0000000000000000000, 1.000000000000000000 ) ) ;
#86 = DIRECTION ( 'NONE',  ( -0.0000000000000000000, 1.000000000000000000, 0.0000000000000000000 ) ) ;
#87 = DIRECTION ( 'NONE',  ( 0.0000000000000000000, 0.0000000000000000000, 1.000000000000000000 ) ) ;
#88 = APPROVAL_PERSON_ORGANIZATION ( #48, #1, #2 ) ;
#89 = VERTEX_POINT ( 'NONE', #100 ) ;
#90 = APPLICATION_PROTOCOL_DEFINITION ( 'international standard', 'config_control_design', 1994, #166 ) ;
#91 = VERTEX_POINT ( 'NONE', #229 ) ;
#92 = ORIENTED_EDGE ( 'NONE', *, *, #95, .F. ) ;
#93 = CIRCLE ( 'NONE', #56, 172.5000000000000000 ) ;
#94 = PERSON_AND_ORGANIZATION ( #142, #38 ) ;
#95 = EDGE_CURVE ( 'NONE', #46, #91, #182, .T. ) ;
#96 = DIRECTION ( 'NONE',  ( -1.224646799147353200E-016, 0.0000000000000000000, 1.000000000000000000 ) ) ;
#97 = AXIS2_PLACEMENT_3D ( 'NONE', #226, #163, #69 ) ;
#98 = PERSON_AND_ORGANIZATION ( #142, #38 ) ;
#99 = CIRCLE ( 'NONE', #74, 172.5000000000000000 ) ;
#100 = CARTESIAN_POINT ( 'NONE',  ( 0.0000000000000000000, 0.0000000000000000000, -172.5000000000000000 ) ) ;
#101 = DIRECTION ( 'NONE',  ( 0.0000000000000000000, -0.0000000000000000000, 1.000000000000000000 ) ) ;
#102 = CARTESIAN_POINT ( 'NONE',  ( -172.5000000000000000, 0.0000000000000000000, -172.5000000000000000 ) ) ;
#103 = PERSON_AND_ORGANIZATION ( #142, #38 ) ;
#104 = CC_DESIGN_APPROVAL ( #1, ( #135 ) ) ;
#105 = APPLICATION_CONTEXT ( 'configuration controlled 3d designs of mechanical parts and assemblies' ) ;
#106 = CALENDAR_DATE ( 2017, 28, 9 ) ;
#107 = PERSON_AND_ORGANIZATION_ROLE ( 'design_supplier' ) ;
#108 = ORIENTED_EDGE ( 'NONE', *, *, #33, .T. ) ;
#109 = PERSON_AND_ORGANIZATION_ROLE ( 'creator' ) ;
#110 = DATE_AND_TIME ( #157, #197 ) ;
#111 = UNCERTAINTY_MEASURE_WITH_UNIT (LENGTH_MEASURE( 1.000000000000000100E-005 ), #227, 'distance_accuracy_value', 'NONE');
#112 = EDGE_CURVE ( 'NONE', #89, #136, #93, .T. ) ;
#113 = DIRECTION ( 'NONE',  ( 0.0000000000000000000, 1.000000000000000000, 0.0000000000000000000 ) ) ;
#114 = VECTOR ( 'NONE', #164, 1000.000000000000000 ) ;
#115 = ORIENTED_EDGE ( 'NONE', *, *, #95, .T. ) ;
#116 = CC_DESIGN_PERSON_AND_ORGANIZATION_ASSIGNMENT ( #6, #107, ( #49 ) ) ;
#117 = DIRECTION ( 'NONE',  ( -1.000000000000000000, -0.0000000000000000000, -1.224646799147353200E-016 ) ) ;
#118 = EDGE_LOOP ( 'NONE', ( #4, #108, #83, #92 ) ) ;
#119 = DIRECTION ( 'NONE',  ( 1.000000000000000000, 0.0000000000000000000, 0.0000000000000000000 ) ) ;
#120 = ADVANCED_FACE ( 'NONE', ( #9 ), #189, .T. ) ;
#121 = ORIENTED_EDGE ( 'NONE', *, *, #22, .T. ) ;
#122 = DIRECTION ( 'NONE',  ( 0.0000000000000000000, -1.000000000000000000, -0.0000000000000000000 ) ) ;
#123 = CARTESIAN_POINT ( 'NONE',  ( 0.0000000000000000000, 172.5000000000000000, -1.056257864264592100E-014 ) ) ;
#124 = CC_DESIGN_PERSON_AND_ORGANIZATION_ASSIGNMENT ( #98, #26, ( #192 ) ) ;
#125 = PERSON_AND_ORGANIZATION_ROLE ( 'classification_officer' ) ;
#126 = DATE_AND_TIME ( #106, #230 ) ;
#127 = CIRCLE ( 'NONE', #61, 21.39999999999999900 ) ;
#128 = APPROVAL_STATUS ( 'not_yet_approved' ) ;
#129 = DATE_TIME_ROLE ( 'creation_date' ) ;
#130 = SECURITY_CLASSIFICATION ( '', '', #60 ) ;
#131 = CALENDAR_DATE ( 2017, 28, 9 ) ;
#132 = ORIENTED_EDGE ( 'NONE', *, *, #54, .F. ) ;
#133 = EDGE_LOOP ( 'NONE', ( #80, #121, #30, #155 ) ) ;
#134 = FACE_OUTER_BOUND ( 'NONE', #133, .T. ) ;
#135 = PRODUCT_DEFINITION ( 'UNKNOWN', '', #49, #55 ) ;
#136 = VERTEX_POINT ( 'NONE', #123 ) ;
#137 = CARTESIAN_POINT ( 'NONE',  ( 0.0000000000000000000, 70.00000000000000000, 0.0000000000000000000 ) ) ;
#138 = CARTESIAN_POINT ( 'NONE',  ( 0.0000000000000000000, 0.0000000000000000000, 0.0000000000000000000 ) ) ;
#139 = CYLINDRICAL_SURFACE ( 'NONE', #32, 21.39999999999999900 ) ;
#140 = DIRECTION ( 'NONE',  ( -0.0000000000000000000, 1.000000000000000000, 0.0000000000000000000 ) ) ;
#141 = CARTESIAN_POINT ( 'NONE',  ( 0.0000000000000000000, 0.0000000000000000000, 0.0000000000000000000 ) ) ;
#142 = PERSON ( 'UNSPECIFIED', 'UNSPECIFIED', 'UNSPECIFIED', ('UNSPECIFIED'), ('UNSPECIFIED'), ('UNSPECIFIED') ) ;
#143 = ADVANCED_FACE ( 'NONE', ( #214 ), #187, .T. ) ;
#144 =( NAMED_UNIT ( * ) SI_UNIT ( $, .STERADIAN. ) SOLID_ANGLE_UNIT ( ) );
#145 = APPROVAL ( #5, 'UNSPECIFIED' ) ;
#146 = COORDINATED_UNIVERSAL_TIME_OFFSET ( 1, 0, .AHEAD. ) ;
#147 = EDGE_CURVE ( 'NONE', #42, #89, #24, .T. ) ;
#148 = VERTEX_POINT ( 'NONE', #186 ) ;
#149 = PERSON_AND_ORGANIZATION_ROLE ( 'creator' ) ;
#150 = FACE_BOUND ( 'NONE', #36, .T. ) ;
#151 = DATE_AND_TIME ( #67, #161 ) ;
#152 = AXIS2_PLACEMENT_3D ( 'NONE', #137, #113, #31 ) ;
#153 = CARTESIAN_POINT ( 'NONE',  ( 2.620744150175335900E-015, 70.00000000000000000, 21.39999999999999900 ) ) ;
#154 = PERSON_AND_ORGANIZATION ( #142, #38 ) ;
#155 = ORIENTED_EDGE ( 'NONE', *, *, #178, .F. ) ;
#156 = EDGE_CURVE ( 'NONE', #91, #46, #11, .T. ) ;
#157 = CALENDAR_DATE ( 2017, 28, 9 ) ;
#158 = CC_DESIGN_PERSON_AND_ORGANIZATION_ASSIGNMENT ( #180, #125, ( #130 ) ) ;
#159 = MANIFOLD_SOLID_BREP ( 'Cut-Extrude2', #79 ) ;
#160 = CARTESIAN_POINT ( 'NONE',  ( 0.0000000000000000000, 70.00000000000000000, 0.0000000000000000000 ) ) ;
#161 = LOCAL_TIME ( 10, 41, 1.000000000000000000, #8 ) ;
#162 = CARTESIAN_POINT ( 'NONE',  ( 0.0000000000000000000, 70.00000000000000000, 0.0000000000000000000 ) ) ;
#163 = DIRECTION ( 'NONE',  ( -1.000000000000000000, 0.0000000000000000000, -0.0000000000000000000 ) ) ;
#164 = DIRECTION ( 'NONE',  ( 0.0000000000000000000, -1.000000000000000000, 0.0000000000000000000 ) ) ;
#165 = DIRECTION ( 'NONE',  ( 0.0000000000000000000, 0.0000000000000000000, 1.000000000000000000 ) ) ;
#166 = APPLICATION_CONTEXT ( 'configuration controlled 3d designs of mechanical parts and assemblies' ) ;
#167 = AXIS2_PLACEMENT_3D ( 'NONE', #35, #208, #71 ) ;
#168 = ORIENTED_EDGE ( 'NONE', *, *, #206, .F. ) ;
#169 = APPLICATION_PROTOCOL_DEFINITION ( 'international standard', 'config_control_design', 1994, #105 ) ;
#170 = CYLINDRICAL_SURFACE ( 'NONE', #28, 21.39999999999999900 ) ;
#171 = AXIS2_PLACEMENT_3D ( 'NONE', #193, #51, #225 ) ;
#172 = CC_DESIGN_DATE_AND_TIME_ASSIGNMENT ( #151, #199, ( #130 ) ) ;
#173 = ORIENTED_EDGE ( 'NONE', *, *, #33, .F. ) ;
#174 = PRODUCT_DEFINITION_SHAPE ( 'NONE', 'NONE',  #135 ) ;
#175 = CC_DESIGN_APPROVAL ( #145, ( #130 ) ) ;
#176 = CARTESIAN_POINT ( 'NONE',  ( -2.112515728529184100E-014, 0.0000000000000000000, 172.5000000000000000 ) ) ;
#177 = CARTESIAN_POINT ( 'NONE',  ( 2.620744150175335900E-015, 0.0000000000000000000, 21.39999999999999900 ) ) ;
#178 = EDGE_CURVE ( 'NONE', #203, #91, #50, .T. ) ;
#179 = CARTESIAN_POINT ( 'NONE',  ( 0.0000000000000000000, 70.00000000000000000, 0.0000000000000000000 ) ) ;
#180 = PERSON_AND_ORGANIZATION ( #142, #38 ) ;
#181 = FACE_OUTER_BOUND ( 'NONE', #84, .T. ) ;
#182 = CIRCLE ( 'NONE', #167, 21.39999999999999900 ) ;
#183 = CARTESIAN_POINT ( 'NONE',  ( 0.0000000000000000000, 70.00000000000000000, -21.39999999999999900 ) ) ;
#184 = AXIS2_PLACEMENT_3D ( 'NONE', #141, #122, #52 ) ;
#185 = DIRECTION ( 'NONE',  ( 0.0000000000000000000, 0.0000000000000000000, 1.000000000000000000 ) ) ;
#186 = CARTESIAN_POINT ( 'NONE',  ( 2.620744150175335900E-015, 70.00000000000000000, 21.39999999999999900 ) ) ;
#187 = SPHERICAL_SURFACE ( 'NONE', #171, 172.5000000000000000 ) ;
#188 = ORIENTED_EDGE ( 'NONE', *, *, #147, .T. ) ;
#189 = SPHERICAL_SURFACE ( 'NONE', #97, 172.5000000000000000 ) ;
#190 = AXIS2_PLACEMENT_3D ( 'NONE', #34, #87, #213 ) ;
#191 = DIRECTION ( 'NONE',  ( 0.0000000000000000000, 0.0000000000000000000, 1.000000000000000000 ) ) ;
#192 = PRODUCT ( 'Half Ball 345', 'Half Ball 345', '', ( #77 ) ) ;
#193 = CARTESIAN_POINT ( 'NONE',  ( 0.0000000000000000000, 0.0000000000000000000, 0.0000000000000000000 ) ) ;
#194 = APPROVAL_DATE_TIME ( #126, #145 ) ;
#195 = ORIENTED_EDGE ( 'NONE', *, *, #112, .T. ) ;
#196 = DIRECTION ( 'NONE',  ( 0.0000000000000000000, 1.000000000000000000, 0.0000000000000000000 ) ) ;
#197 = LOCAL_TIME ( 10, 41, 1.000000000000000000, #82 ) ;
#198 = DIRECTION ( 'NONE',  ( 0.0000000000000000000, 0.0000000000000000000, -1.000000000000000000 ) ) ;
#199 = DATE_TIME_ROLE ( 'classification_date' ) ;
#200 = DATE_AND_TIME ( #216, #19 ) ;
#201 = EDGE_CURVE ( 'NONE', #89, #42, #63, .T. ) ;
#202 = CIRCLE ( 'NONE', #65, 21.39999999999999900 ) ;
#203 = VERTEX_POINT ( 'NONE', #183 ) ;
#204 = APPROVAL_PERSON_ORGANIZATION ( #44, #228, #3 ) ;
#205 = CARTESIAN_POINT ( 'NONE',  ( 0.0000000000000000000, 0.0000000000000000000, 0.0000000000000000000 ) ) ;
#206 = EDGE_CURVE ( 'NONE', #203, #148, #202, .T. ) ;
#207 = EDGE_LOOP ( 'NONE', ( #132, #39, #195 ) ) ;
#208 = DIRECTION ( 'NONE',  ( -0.0000000000000000000, 1.000000000000000000, 0.0000000000000000000 ) ) ;
#209 = CARTESIAN_POINT ( 'NONE',  ( 0.0000000000000000000, 70.00000000000000000, 0.0000000000000000000 ) ) ;
#210 = COORDINATED_UNIVERSAL_TIME_OFFSET ( 1, 0, .AHEAD. ) ;
#211 = AXIS2_PLACEMENT_3D ( 'NONE', #16, #140, #165 ) ;
#212 = ADVANCED_FACE ( 'NONE', ( #134 ), #170, .F. ) ;
#213 = DIRECTION ( 'NONE',  ( 1.000000000000000000, 0.0000000000000000000, 0.0000000000000000000 ) ) ;
#214 = FACE_OUTER_BOUND ( 'NONE', #207, .T. ) ;
#215 = CC_DESIGN_SECURITY_CLASSIFICATION ( #130, ( #49 ) ) ;
#216 = CALENDAR_DATE ( 2017, 28, 9 ) ;
#217 = ORIENTED_EDGE ( 'NONE', *, *, #156, .T. ) ;
#218 = FACE_OUTER_BOUND ( 'NONE', #231, .T. ) ;
#219 = PRODUCT_RELATED_PRODUCT_CATEGORY ( 'detail', '', ( #192 ) ) ;
#220 = CC_DESIGN_APPROVAL ( #228, ( #49 ) ) ;
#221 = EDGE_LOOP ( 'NONE', ( #78, #76, #7 ) ) ;
#222 = DIRECTION ( 'NONE',  ( 0.0000000000000000000, 1.000000000000000000, 0.0000000000000000000 ) ) ;
#223 = PLANE ( 'NONE',  #152 ) ;
#224 = DIRECTION ( 'NONE',  ( 0.0000000000000000000, 0.0000000000000000000, -1.000000000000000000 ) ) ;
#225 = DIRECTION ( 'NONE',  ( 0.0000000000000000000, 0.0000000000000000000, -1.000000000000000000 ) ) ;
#226 = CARTESIAN_POINT ( 'NONE',  ( 0.0000000000000000000, 0.0000000000000000000, 0.0000000000000000000 ) ) ;
#227 =( LENGTH_UNIT ( ) NAMED_UNIT ( * ) SI_UNIT ( .MILLI., .METRE. ) );
#228 = APPROVAL ( #41, 'UNSPECIFIED' ) ;
#229 = CARTESIAN_POINT ( 'NONE',  ( 0.0000000000000000000, 0.0000000000000000000, -21.39999999999999900 ) ) ;
#230 = LOCAL_TIME ( 10, 41, 1.000000000000000000, #146 ) ;
#231 = EDGE_LOOP ( 'NONE', ( #62, #188 ) ) ;
ENDSEC;
END-ISO-10303-21;
