ISO-10303-21;
HEADER;
FILE_DESCRIPTION (( 'STEP AP203' ),
    '1' );
FILE_NAME ('Half Ball 500.STEP',
    '2017-09-28T08:43:00',
    ( '' ),
    ( '' ),
    'SwSTEP 2.0',
    'SolidWorks 2016',
    '' );
FILE_SCHEMA (( 'CONFIG_CONTROL_DESIGN' ));
ENDSEC;

DATA;
#1 = DATE_AND_TIME ( #89, #193 ) ;
#2 = CARTESIAN_POINT ( 'NONE',  ( -250.0000000000000000, 0.0000000000000000000, -250.0000000000000000 ) ) ;
#3 = CARTESIAN_POINT ( 'NONE',  ( 2.620744150175335900E-015, 145.0000000000000000, 21.39999999999999900 ) ) ;
#4 = PERSON ( 'UNSPECIFIED', 'UNSPECIFIED', 'UNSPECIFIED', ('UNSPECIFIED'), ('UNSPECIFIED'), ('UNSPECIFIED') ) ;
#5 = EDGE_LOOP ( 'NONE', ( #206, #184 ) ) ;
#6 = DIRECTION ( 'NONE',  ( 0.0000000000000000000, 1.000000000000000000, 0.0000000000000000000 ) ) ;
#7 = ORIENTED_EDGE ( 'NONE', *, *, #97, .F. ) ;
#8 = PERSON_AND_ORGANIZATION_ROLE ( 'creator' ) ;
#9 = ORIENTED_EDGE ( 'NONE', *, *, #106, .T. ) ;
#10 = EDGE_LOOP ( 'NONE', ( #121, #91 ) ) ;
#11 = APPROVAL ( #65, 'UNSPECIFIED' ) ;
#12 = ADVANCED_BREP_SHAPE_REPRESENTATION ( 'Half Ball 500', ( #183, #99 ), #208 ) ;
#13 = ORIENTED_EDGE ( 'NONE', *, *, #154, .F. ) ;
#14 = COORDINATED_UNIVERSAL_TIME_OFFSET ( 1, 0, .AHEAD. ) ;
#15 = CARTESIAN_POINT ( 'NONE',  ( 0.0000000000000000000, 145.0000000000000000, -21.39999999999999900 ) ) ;
#16 = EDGE_LOOP ( 'NONE', ( #81, #133 ) ) ;
#17 = CARTESIAN_POINT ( 'NONE',  ( 2.620744150175335900E-015, 0.0000000000000000000, 21.39999999999999900 ) ) ;
#18 = PERSON_AND_ORGANIZATION_ROLE ( 'classification_officer' ) ;
#19 = AXIS2_PLACEMENT_3D ( 'NONE', #194, #209, #229 ) ;
#20 = AXIS2_PLACEMENT_3D ( 'NONE', #43, #58, #108 ) ;
#21 = ORIENTED_EDGE ( 'NONE', *, *, #225, .T. ) ;
#22 = LOCAL_TIME ( 10, 43, 0.0000000000000000000, #122 ) ;
#23 = APPROVAL_PERSON_ORGANIZATION ( #172, #168, #86 ) ;
#24 = DIRECTION ( 'NONE',  ( 0.0000000000000000000, -1.000000000000000000, -0.0000000000000000000 ) ) ;
#25 = ORIENTED_EDGE ( 'NONE', *, *, #92, .F. ) ;
#26 = APPROVAL_DATE_TIME ( #74, #168 ) ;
#27 = EDGE_CURVE ( 'NONE', #228, #128, #205, .T. ) ;
#28 = CARTESIAN_POINT ( 'NONE',  ( 0.0000000000000000000, 0.0000000000000000000, 0.0000000000000000000 ) ) ;
#29 = PRODUCT ( 'Half Ball 500', 'Half Ball 500', '', ( #173 ) ) ;
#30 = DIRECTION ( 'NONE',  ( 0.0000000000000000000, 0.0000000000000000000, 1.000000000000000000 ) ) ;
#31 = APPROVAL_DATE_TIME ( #136, #11 ) ;
#32 = DIRECTION ( 'NONE',  ( 0.0000000000000000000, -1.000000000000000000, 0.0000000000000000000 ) ) ;
#33 = AXIS2_PLACEMENT_3D ( 'NONE', #155, #150, #96 ) ;
#34 = DIRECTION ( 'NONE',  ( -1.000000000000000000, -0.0000000000000000000, -1.224646799147353200E-016 ) ) ;
#35 = CC_DESIGN_APPROVAL ( #168, ( #110 ) ) ;
#36 = FACE_OUTER_BOUND ( 'NONE', #78, .T. ) ;
#37 = ADVANCED_FACE ( 'NONE', ( #45 ), #53, .F. ) ;
#38 = VERTEX_POINT ( 'NONE', #165 ) ;
#39 = SECURITY_CLASSIFICATION_LEVEL ( 'unclassified' ) ;
#40 = VECTOR ( 'NONE', #76, 1000.000000000000000 ) ;
#41 = CIRCLE ( 'NONE', #140, 250.0000000000000000 ) ;
#42 = EDGE_LOOP ( 'NONE', ( #141, #212, #75 ) ) ;
#43 = CARTESIAN_POINT ( 'NONE',  ( 0.0000000000000000000, 145.0000000000000000, 0.0000000000000000000 ) ) ;
#44 = AXIS2_PLACEMENT_3D ( 'NONE', #152, #113, #139 ) ;
#45 = FACE_OUTER_BOUND ( 'NONE', #126, .T. ) ;
#46 = CLOSED_SHELL ( 'NONE', ( #159, #69, #37, #67, #161, #119 ) ) ;
#47 = CARTESIAN_POINT ( 'NONE',  ( 0.0000000000000000000, 145.0000000000000000, -21.39999999999999900 ) ) ;
#48 = AXIS2_PLACEMENT_3D ( 'NONE', #214, #138, #176 ) ;
#49 = DIRECTION ( 'NONE',  ( 0.0000000000000000000, -0.0000000000000000000, 1.000000000000000000 ) ) ;
#50 = DIRECTION ( 'NONE',  ( 0.0000000000000000000, 0.0000000000000000000, 1.000000000000000000 ) ) ;
#51 = DIRECTION ( 'NONE',  ( 1.000000000000000000, 0.0000000000000000000, 0.0000000000000000000 ) ) ;
#52 = CARTESIAN_POINT ( 'NONE',  ( 0.0000000000000000000, 145.0000000000000000, 0.0000000000000000000 ) ) ;
#53 = CYLINDRICAL_SURFACE ( 'NONE', #20, 21.39999999999999900 ) ;
#54 = APPROVAL_STATUS ( 'not_yet_approved' ) ;
#55 = LOCAL_TIME ( 10, 43, 0.0000000000000000000, #131 ) ;
#56 = APPROVAL_DATE_TIME ( #221, #127 ) ;
#57 = AXIS2_PLACEMENT_3D ( 'NONE', #62, #114, #117 ) ;
#58 = DIRECTION ( 'NONE',  ( 0.0000000000000000000, -1.000000000000000000, 0.0000000000000000000 ) ) ;
#59 = ORIENTED_EDGE ( 'NONE', *, *, #82, .T. ) ;
#60 = DIRECTION ( 'NONE',  ( 0.0000000000000000000, -1.000000000000000000, 0.0000000000000000000 ) ) ;
#61 = UNCERTAINTY_MEASURE_WITH_UNIT (LENGTH_MEASURE( 1.000000000000000100E-005 ), #217, 'distance_accuracy_value', 'NONE');
#62 = CARTESIAN_POINT ( 'NONE',  ( 0.0000000000000000000, 0.0000000000000000000, 0.0000000000000000000 ) ) ;
#63 = DIRECTION ( 'NONE',  ( 0.0000000000000000000, 0.0000000000000000000, -1.000000000000000000 ) ) ;
#64 = CC_DESIGN_PERSON_AND_ORGANIZATION_ASSIGNMENT ( #68, #104, ( #111 ) ) ;
#65 = APPROVAL_STATUS ( 'not_yet_approved' ) ;
#66 = AXIS2_PLACEMENT_3D ( 'NONE', #28, #34, #137 ) ;
#67 = ADVANCED_FACE ( 'NONE', ( #218 ), #80, .F. ) ;
#68 = PERSON_AND_ORGANIZATION ( #4, #207 ) ;
#69 = ADVANCED_FACE ( 'NONE', ( #130 ), #192, .F. ) ;
#70 = APPROVAL_PERSON_ORGANIZATION ( #167, #127, #204 ) ;
#71 = CIRCLE ( 'NONE', #33, 21.39999999999999900 ) ;
#72 = ORIENTED_EDGE ( 'NONE', *, *, #154, .T. ) ;
#73 = CC_DESIGN_DATE_AND_TIME_ASSIGNMENT ( #1, #182, ( #110 ) ) ;
#74 = DATE_AND_TIME ( #123, #160 ) ;
#75 = ORIENTED_EDGE ( 'NONE', *, *, #211, .T. ) ;
#76 = DIRECTION ( 'NONE',  ( 0.0000000000000000000, -1.000000000000000000, 0.0000000000000000000 ) ) ;
#77 = VECTOR ( 'NONE', #32, 1000.000000000000000 ) ;
#78 = EDGE_LOOP ( 'NONE', ( #7, #201, #112 ) ) ;
#79 = AXIS2_PLACEMENT_3D ( 'NONE', #2, #216, #49 ) ;
#80 = PLANE ( 'NONE',  #125 ) ;
#81 = ORIENTED_EDGE ( 'NONE', *, *, #225, .F. ) ;
#82 = EDGE_CURVE ( 'NONE', #210, #38, #109, .T. ) ;
#83 =( NAMED_UNIT ( * ) SI_UNIT ( $, .STERADIAN. ) SOLID_ANGLE_UNIT ( ) );
#84 = CC_DESIGN_PERSON_AND_ORGANIZATION_ASSIGNMENT ( #102, #8, ( #230 ) ) ;
#85 = APPLICATION_PROTOCOL_DEFINITION ( 'international standard', 'config_control_design', 1994, #219 ) ;
#86 = APPROVAL_ROLE ( '' ) ;
#87 = FACE_OUTER_BOUND ( 'NONE', #42, .T. ) ;
#88 = PERSON_AND_ORGANIZATION ( #4, #207 ) ;
#89 = CALENDAR_DATE ( 2017, 28, 9 ) ;
#90 = EDGE_CURVE ( 'NONE', #164, #38, #100, .T. ) ;
#91 = ORIENTED_EDGE ( 'NONE', *, *, #97, .T. ) ;
#92 = EDGE_CURVE ( 'NONE', #38, #164, #71, .T. ) ;
#93 = CC_DESIGN_DATE_AND_TIME_ASSIGNMENT ( #177, #124, ( #230 ) ) ;
#94 = ORIENTED_EDGE ( 'NONE', *, *, #90, .F. ) ;
#95 = PERSON_AND_ORGANIZATION ( #4, #207 ) ;
#96 = DIRECTION ( 'NONE',  ( 0.0000000000000000000, 0.0000000000000000000, 1.000000000000000000 ) ) ;
#97 = EDGE_CURVE ( 'NONE', #128, #228, #187, .T. ) ;
#98 =( NAMED_UNIT ( * ) PLANE_ANGLE_UNIT ( ) SI_UNIT ( $, .RADIAN. ) );
#99 = AXIS2_PLACEMENT_3D ( 'NONE', #220, #101, #199 ) ;
#100 = CIRCLE ( 'NONE', #19, 21.39999999999999900 ) ;
#101 = DIRECTION ( 'NONE',  ( 0.0000000000000000000, 0.0000000000000000000, 1.000000000000000000 ) ) ;
#102 = PERSON_AND_ORGANIZATION ( #4, #207 ) ;
#103 = APPLICATION_CONTEXT ( 'configuration controlled 3d designs of mechanical parts and assemblies' ) ;
#104 = PERSON_AND_ORGANIZATION_ROLE ( 'creator' ) ;
#105 = APPLICATION_PROTOCOL_DEFINITION ( 'international standard', 'config_control_design', 1994, #103 ) ;
#106 = EDGE_CURVE ( 'NONE', #170, #210, #132, .T. ) ;
#107 = PERSON_AND_ORGANIZATION ( #4, #207 ) ;
#108 = DIRECTION ( 'NONE',  ( 0.0000000000000000000, 0.0000000000000000000, -1.000000000000000000 ) ) ;
#109 = LINE ( 'NONE', #47, #40 ) ;
#110 = SECURITY_CLASSIFICATION ( '', '', #39 ) ;
#111 = PRODUCT_DEFINITION_FORMATION_WITH_SPECIFIED_SOURCE ( 'ANY', '', #29, .NOT_KNOWN. ) ;
#112 = ORIENTED_EDGE ( 'NONE', *, *, #211, .F. ) ;
#113 = DIRECTION ( 'NONE',  ( 0.0000000000000000000, 1.000000000000000000, 0.0000000000000000000 ) ) ;
#114 = DIRECTION ( 'NONE',  ( -1.000000000000000000, 0.0000000000000000000, -0.0000000000000000000 ) ) ;
#115 = DIRECTION ( 'NONE',  ( 0.0000000000000000000, -1.000000000000000000, -0.0000000000000000000 ) ) ;
#116 = CC_DESIGN_PERSON_AND_ORGANIZATION_ASSIGNMENT ( #107, #118, ( #111 ) ) ;
#117 = DIRECTION ( 'NONE',  ( 0.0000000000000000000, 0.0000000000000000000, -1.000000000000000000 ) ) ;
#118 = PERSON_AND_ORGANIZATION_ROLE ( 'design_supplier' ) ;
#119 = ADVANCED_FACE ( 'NONE', ( #87 ), #120, .T. ) ;
#120 = SPHERICAL_SURFACE ( 'NONE', #48, 250.0000000000000000 ) ;
#121 = ORIENTED_EDGE ( 'NONE', *, *, #27, .T. ) ;
#122 = COORDINATED_UNIVERSAL_TIME_OFFSET ( 1, 0, .AHEAD. ) ;
#123 = CALENDAR_DATE ( 2017, 28, 9 ) ;
#124 = DATE_TIME_ROLE ( 'creation_date' ) ;
#125 = AXIS2_PLACEMENT_3D ( 'NONE', #149, #189, #190 ) ;
#126 = EDGE_LOOP ( 'NONE', ( #13, #9, #59, #94 ) ) ;
#127 = APPROVAL ( #54, 'UNSPECIFIED' ) ;
#128 = VERTEX_POINT ( 'NONE', #195 ) ;
#129 = AXIS2_PLACEMENT_3D ( 'NONE', #171, #60, #143 ) ;
#130 = FACE_OUTER_BOUND ( 'NONE', #142, .T. ) ;
#131 = COORDINATED_UNIVERSAL_TIME_OFFSET ( 1, 0, .AHEAD. ) ;
#132 = CIRCLE ( 'NONE', #44, 21.39999999999999900 ) ;
#133 = ORIENTED_EDGE ( 'NONE', *, *, #106, .F. ) ;
#134 = CARTESIAN_POINT ( 'NONE',  ( 0.0000000000000000000, 0.0000000000000000000, 0.0000000000000000000 ) ) ;
#135 = PLANE ( 'NONE',  #79 ) ;
#136 = DATE_AND_TIME ( #191, #196 ) ;
#137 = DIRECTION ( 'NONE',  ( -1.224646799147353200E-016, 0.0000000000000000000, 1.000000000000000000 ) ) ;
#138 = DIRECTION ( 'NONE',  ( -1.000000000000000000, 0.0000000000000000000, -0.0000000000000000000 ) ) ;
#139 = DIRECTION ( 'NONE',  ( 0.0000000000000000000, 0.0000000000000000000, 1.000000000000000000 ) ) ;
#140 = AXIS2_PLACEMENT_3D ( 'NONE', #175, #51, #63 ) ;
#141 = ORIENTED_EDGE ( 'NONE', *, *, #166, .F. ) ;
#142 = EDGE_LOOP ( 'NONE', ( #21, #72, #25, #156 ) ) ;
#143 = DIRECTION ( 'NONE',  ( 0.0000000000000000000, 0.0000000000000000000, -1.000000000000000000 ) ) ;
#144 = APPROVAL_PERSON_ORGANIZATION ( #146, #11, #203 ) ;
#145 = CC_DESIGN_APPROVAL ( #11, ( #230 ) ) ;
#146 = PERSON_AND_ORGANIZATION ( #4, #207 ) ;
#147 = DIRECTION ( 'NONE',  ( 0.0000000000000000000, 0.0000000000000000000, 1.000000000000000000 ) ) ;
#148 = AXIS2_PLACEMENT_3D ( 'NONE', #198, #115, #50 ) ;
#149 = CARTESIAN_POINT ( 'NONE',  ( 0.0000000000000000000, 145.0000000000000000, 0.0000000000000000000 ) ) ;
#150 = DIRECTION ( 'NONE',  ( -0.0000000000000000000, 1.000000000000000000, 0.0000000000000000000 ) ) ;
#151 = CALENDAR_DATE ( 2017, 28, 9 ) ;
#152 = CARTESIAN_POINT ( 'NONE',  ( 0.0000000000000000000, 145.0000000000000000, 0.0000000000000000000 ) ) ;
#153 = CARTESIAN_POINT ( 'NONE',  ( 2.620744150175335900E-015, 145.0000000000000000, 21.39999999999999900 ) ) ;
#154 = EDGE_CURVE ( 'NONE', #170, #164, #169, .T. ) ;
#155 = CARTESIAN_POINT ( 'NONE',  ( 0.0000000000000000000, 0.0000000000000000000, 0.0000000000000000000 ) ) ;
#156 = ORIENTED_EDGE ( 'NONE', *, *, #82, .F. ) ;
#157 = CC_DESIGN_PERSON_AND_ORGANIZATION_ASSIGNMENT ( #95, #18, ( #110 ) ) ;
#158 = DESIGN_CONTEXT ( 'detailed design', #103, 'design' ) ;
#159 = ADVANCED_FACE ( 'NONE', ( #36 ), #223, .T. ) ;
#160 = LOCAL_TIME ( 10, 43, 0.0000000000000000000, #215 ) ;
#161 = ADVANCED_FACE ( 'NONE', ( #227, #163 ), #135, .F. ) ;
#162 = SHAPE_DEFINITION_REPRESENTATION ( #180, #12 ) ;
#163 = FACE_BOUND ( 'NONE', #5, .T. ) ;
#164 = VERTEX_POINT ( 'NONE', #17 ) ;
#165 = CARTESIAN_POINT ( 'NONE',  ( 0.0000000000000000000, 0.0000000000000000000, -21.39999999999999900 ) ) ;
#166 = EDGE_CURVE ( 'NONE', #128, #188, #231, .T. ) ;
#167 = PERSON_AND_ORGANIZATION ( #4, #207 ) ;
#168 = APPROVAL ( #224, 'UNSPECIFIED' ) ;
#169 = LINE ( 'NONE', #3, #77 ) ;
#170 = VERTEX_POINT ( 'NONE', #153 ) ;
#171 = CARTESIAN_POINT ( 'NONE',  ( 0.0000000000000000000, 145.0000000000000000, 0.0000000000000000000 ) ) ;
#172 = PERSON_AND_ORGANIZATION ( #4, #207 ) ;
#173 = MECHANICAL_CONTEXT ( 'NONE', #219, 'mechanical' ) ;
#174 = CARTESIAN_POINT ( 'NONE',  ( 0.0000000000000000000, 250.0000000000000000, -1.530808498934191600E-014 ) ) ;
#175 = CARTESIAN_POINT ( 'NONE',  ( 0.0000000000000000000, 0.0000000000000000000, 0.0000000000000000000 ) ) ;
#176 = DIRECTION ( 'NONE',  ( 0.0000000000000000000, 0.0000000000000000000, -1.000000000000000000 ) ) ;
#177 = DATE_AND_TIME ( #226, #55 ) ;
#178 = CIRCLE ( 'NONE', #181, 21.39999999999999900 ) ;
#179 = CC_DESIGN_APPROVAL ( #127, ( #111 ) ) ;
#180 = PRODUCT_DEFINITION_SHAPE ( 'NONE', 'NONE',  #230 ) ;
#181 = AXIS2_PLACEMENT_3D ( 'NONE', #52, #6, #30 ) ;
#182 = DATE_TIME_ROLE ( 'classification_date' ) ;
#183 = MANIFOLD_SOLID_BREP ( 'Cut-Extrude2', #46 ) ;
#184 = ORIENTED_EDGE ( 'NONE', *, *, #90, .T. ) ;
#185 = AXIS2_PLACEMENT_3D ( 'NONE', #134, #24, #147 ) ;
#186 = CC_DESIGN_SECURITY_CLASSIFICATION ( #110, ( #111 ) ) ;
#187 = CIRCLE ( 'NONE', #148, 250.0000000000000000 ) ;
#188 = VERTEX_POINT ( 'NONE', #174 ) ;
#189 = DIRECTION ( 'NONE',  ( 0.0000000000000000000, 1.000000000000000000, 0.0000000000000000000 ) ) ;
#190 = DIRECTION ( 'NONE',  ( 0.0000000000000000000, -0.0000000000000000000, 1.000000000000000000 ) ) ;
#191 = CALENDAR_DATE ( 2017, 28, 9 ) ;
#192 = CYLINDRICAL_SURFACE ( 'NONE', #129, 21.39999999999999900 ) ;
#193 = LOCAL_TIME ( 10, 43, 0.0000000000000000000, #213 ) ;
#194 = CARTESIAN_POINT ( 'NONE',  ( 0.0000000000000000000, 0.0000000000000000000, 0.0000000000000000000 ) ) ;
#195 = CARTESIAN_POINT ( 'NONE',  ( -3.061616997868383100E-014, 0.0000000000000000000, 250.0000000000000000 ) ) ;
#196 = LOCAL_TIME ( 10, 43, 0.0000000000000000000, #14 ) ;
#197 = CARTESIAN_POINT ( 'NONE',  ( 0.0000000000000000000, 0.0000000000000000000, -250.0000000000000000 ) ) ;
#198 = CARTESIAN_POINT ( 'NONE',  ( 0.0000000000000000000, 0.0000000000000000000, 0.0000000000000000000 ) ) ;
#199 = DIRECTION ( 'NONE',  ( 1.000000000000000000, 0.0000000000000000000, 0.0000000000000000000 ) ) ;
#200 = PRODUCT_RELATED_PRODUCT_CATEGORY ( 'detail', '', ( #29 ) ) ;
#201 = ORIENTED_EDGE ( 'NONE', *, *, #166, .T. ) ;
#202 = PERSON_AND_ORGANIZATION_ROLE ( 'design_owner' ) ;
#203 = APPROVAL_ROLE ( '' ) ;
#204 = APPROVAL_ROLE ( '' ) ;
#205 = CIRCLE ( 'NONE', #185, 250.0000000000000000 ) ;
#206 = ORIENTED_EDGE ( 'NONE', *, *, #92, .T. ) ;
#207 = ORGANIZATION ( 'UNSPECIFIED', 'UNSPECIFIED', '' ) ;
#208 =( GEOMETRIC_REPRESENTATION_CONTEXT ( 3 ) GLOBAL_UNCERTAINTY_ASSIGNED_CONTEXT ( ( #61 ) ) GLOBAL_UNIT_ASSIGNED_CONTEXT ( ( #217, #98, #83 ) ) REPRESENTATION_CONTEXT ( 'NONE', 'WORKASPACE' ) );
#209 = DIRECTION ( 'NONE',  ( -0.0000000000000000000, 1.000000000000000000, 0.0000000000000000000 ) ) ;
#210 = VERTEX_POINT ( 'NONE', #15 ) ;
#211 = EDGE_CURVE ( 'NONE', #228, #188, #41, .T. ) ;
#212 = ORIENTED_EDGE ( 'NONE', *, *, #27, .F. ) ;
#213 = COORDINATED_UNIVERSAL_TIME_OFFSET ( 1, 0, .AHEAD. ) ;
#214 = CARTESIAN_POINT ( 'NONE',  ( 0.0000000000000000000, 0.0000000000000000000, 0.0000000000000000000 ) ) ;
#215 = COORDINATED_UNIVERSAL_TIME_OFFSET ( 1, 0, .AHEAD. ) ;
#216 = DIRECTION ( 'NONE',  ( -0.0000000000000000000, 1.000000000000000000, 0.0000000000000000000 ) ) ;
#217 =( LENGTH_UNIT ( ) NAMED_UNIT ( * ) SI_UNIT ( .MILLI., .METRE. ) );
#218 = FACE_OUTER_BOUND ( 'NONE', #16, .T. ) ;
#219 = APPLICATION_CONTEXT ( 'configuration controlled 3d designs of mechanical parts and assemblies' ) ;
#220 = CARTESIAN_POINT ( 'NONE',  ( 0.0000000000000000000, 0.0000000000000000000, 0.0000000000000000000 ) ) ;
#221 = DATE_AND_TIME ( #151, #22 ) ;
#222 = CC_DESIGN_PERSON_AND_ORGANIZATION_ASSIGNMENT ( #88, #202, ( #29 ) ) ;
#223 = SPHERICAL_SURFACE ( 'NONE', #57, 250.0000000000000000 ) ;
#224 = APPROVAL_STATUS ( 'not_yet_approved' ) ;
#225 = EDGE_CURVE ( 'NONE', #210, #170, #178, .T. ) ;
#226 = CALENDAR_DATE ( 2017, 28, 9 ) ;
#227 = FACE_OUTER_BOUND ( 'NONE', #10, .T. ) ;
#228 = VERTEX_POINT ( 'NONE', #197 ) ;
#229 = DIRECTION ( 'NONE',  ( 0.0000000000000000000, 0.0000000000000000000, 1.000000000000000000 ) ) ;
#230 = PRODUCT_DEFINITION ( 'UNKNOWN', '', #111, #158 ) ;
#231 = CIRCLE ( 'NONE', #66, 250.0000000000000000 ) ;
ENDSEC;
END-ISO-10303-21;
