ISO-10303-21;
HEADER;
FILE_DESCRIPTION (( 'STEP AP203' ),
    '1' );
FILE_NAME ('Half Ball 695.STEP',
    '2017-09-28T08:50:46',
    ( '' ),
    ( '' ),
    'SwSTEP 2.0',
    'SolidWorks 2016',
    '' );
FILE_SCHEMA (( 'CONFIG_CONTROL_DESIGN' ));
ENDSEC;

DATA;
#1 = APPROVAL_STATUS ( 'not_yet_approved' ) ;
#2 = CLOSED_SHELL ( 'NONE', ( #162, #214, #145, #127, #197, #35 ) ) ;
#3 = DIRECTION ( 'NONE',  ( -1.847043701040053700E-016, 1.000000000000000000, 0.0000000000000000000 ) ) ;
#4 = CC_DESIGN_APPROVAL ( #161, ( #159 ) ) ;
#5 = APPROVAL_STATUS ( 'not_yet_approved' ) ;
#6 = CARTESIAN_POINT ( 'NONE',  ( 0.0000000000000000000, 0.0000000000000000000, 0.0000000000000000000 ) ) ;
#7 = VERTEX_POINT ( 'NONE', #73 ) ;
#8 = CIRCLE ( 'NONE', #63, 347.5000000000000000 ) ;
#9 = PRODUCT ( 'Half Ball 695', 'Half Ball 695', '', ( #206 ) ) ;
#10 = CALENDAR_DATE ( 2017, 28, 9 ) ;
#11 = SPHERICAL_SURFACE ( 'NONE', #122, 347.5000000000000000 ) ;
#12 = CC_DESIGN_DATE_AND_TIME_ASSIGNMENT ( #17, #118, ( #126 ) ) ;
#13 = EDGE_CURVE ( 'NONE', #36, #178, #185, .T. ) ;
#14 = EDGE_LOOP ( 'NONE', ( #173, #45 ) ) ;
#15 = COORDINATED_UNIVERSAL_TIME_OFFSET ( 1, 0, .AHEAD. ) ;
#16 = ORIENTED_EDGE ( 'NONE', *, *, #187, .T. ) ;
#17 = DATE_AND_TIME ( #179, #216 ) ;
#18 = CIRCLE ( 'NONE', #213, 347.5000000000000000 ) ;
#19 = CARTESIAN_POINT ( 'NONE',  ( 0.0000000000000000000, 347.5000000000000000, -2.127823813518526000E-014 ) ) ;
#20 = DIRECTION ( 'NONE',  ( 0.0000000000000000000, -0.0000000000000000000, 1.000000000000000000 ) ) ;
#21 = DIRECTION ( 'NONE',  ( -1.000000000000000000, -1.847043701040053700E-016, 0.0000000000000000000 ) ) ;
#22 = ORIENTED_EDGE ( 'NONE', *, *, #187, .F. ) ;
#23 = ORIENTED_EDGE ( 'NONE', *, *, #228, .T. ) ;
#24 = PERSON_AND_ORGANIZATION ( #70, #231 ) ;
#25 = DIRECTION ( 'NONE',  ( 1.000000000000000000, 0.0000000000000000000, 0.0000000000000000000 ) ) ;
#26 = FACE_BOUND ( 'NONE', #211, .T. ) ;
#27 = DIRECTION ( 'NONE',  ( -1.000000000000000000, 0.0000000000000000000, -0.0000000000000000000 ) ) ;
#28 = PERSON_AND_ORGANIZATION_ROLE ( 'creator' ) ;
#29 = DIRECTION ( 'NONE',  ( 0.0000000000000000000, -1.000000000000000000, 0.0000000000000000000 ) ) ;
#30 = EDGE_LOOP ( 'NONE', ( #68, #144 ) ) ;
#31 = APPROVAL_DATE_TIME ( #76, #170 ) ;
#32 = FACE_OUTER_BOUND ( 'NONE', #125, .T. ) ;
#33 = APPROVAL ( #209, 'UNSPECIFIED' ) ;
#34 = APPROVAL_DATE_TIME ( #83, #161 ) ;
#35 = ADVANCED_FACE ( 'NONE', ( #204 ), #158, .T. ) ;
#36 = VERTEX_POINT ( 'NONE', #182 ) ;
#37 = ORIENTED_EDGE ( 'NONE', *, *, #228, .F. ) ;
#38 = FACE_OUTER_BOUND ( 'NONE', #95, .T. ) ;
#39 = EDGE_CURVE ( 'NONE', #65, #191, #130, .T. ) ;
#40 = PLANE ( 'NONE',  #44 ) ;
#41 = EDGE_LOOP ( 'NONE', ( #165, #117, #105, #88 ) ) ;
#42 = DIRECTION ( 'NONE',  ( 0.0000000000000000000, 1.000000000000000000, 0.0000000000000000000 ) ) ;
#43 = DIRECTION ( 'NONE',  ( -1.000000000000000000, -1.847043701040054900E-016, 0.0000000000000000000 ) ) ;
#44 = AXIS2_PLACEMENT_3D ( 'NONE', #77, #217, #20 ) ;
#45 = ORIENTED_EDGE ( 'NONE', *, *, #192, .T. ) ;
#46 = DIRECTION ( 'NONE',  ( 0.0000000000000000000, 0.0000000000000000000, -1.000000000000000000 ) ) ;
#47 = PERSON_AND_ORGANIZATION ( #70, #231 ) ;
#48 = LINE ( 'NONE', #166, #90 ) ;
#49 = EDGE_CURVE ( 'NONE', #124, #65, #160, .T. ) ;
#50 = EDGE_CURVE ( 'NONE', #178, #141, #18, .T. ) ;
#51 = CALENDAR_DATE ( 2017, 28, 9 ) ;
#52 = CIRCLE ( 'NONE', #110, 21.39999999999999900 ) ;
#53 = CC_DESIGN_APPROVAL ( #33, ( #66 ) ) ;
#54 = DIRECTION ( 'NONE',  ( -1.000000000000000000, 0.0000000000000000000, -0.0000000000000000000 ) ) ;
#55 = CARTESIAN_POINT ( 'NONE',  ( 0.0000000000000000000, 147.5000000000000000, -21.39999999999999900 ) ) ;
#56 = DIRECTION ( 'NONE',  ( 0.0000000000000000000, 1.000000000000000000, 0.0000000000000000000 ) ) ;
#57 = CARTESIAN_POINT ( 'NONE',  ( 0.0000000000000000000, 147.5000000000000000, 0.0000000000000000000 ) ) ;
#58 = EDGE_CURVE ( 'NONE', #124, #7, #48, .T. ) ;
#59 = EDGE_LOOP ( 'NONE', ( #212, #180, #16 ) ) ;
#60 = DIRECTION ( 'NONE',  ( 0.0000000000000000000, 0.0000000000000000000, -1.000000000000000000 ) ) ;
#61 = DIRECTION ( 'NONE',  ( -1.000000000000000000, -1.847043701040053700E-016, 0.0000000000000000000 ) ) ;
#62 = DIRECTION ( 'NONE',  ( 0.0000000000000000000, 0.0000000000000000000, 1.000000000000000000 ) ) ;
#63 = AXIS2_PLACEMENT_3D ( 'NONE', #171, #219, #46 ) ;
#64 = DIRECTION ( 'NONE',  ( 1.847043701040053700E-016, -1.000000000000000000, -0.0000000000000000000 ) ) ;
#65 = VERTEX_POINT ( 'NONE', #55 ) ;
#66 = PRODUCT_DEFINITION_FORMATION_WITH_SPECIFIED_SOURCE ( 'ANY', '', #9, .NOT_KNOWN. ) ;
#67 = COORDINATED_UNIVERSAL_TIME_OFFSET ( 1, 0, .AHEAD. ) ;
#68 = ORIENTED_EDGE ( 'NONE', *, *, #80, .F. ) ;
#69 = LOCAL_TIME ( 10, 50, 46.00000000000000000, #15 ) ;
#70 = PERSON ( 'UNSPECIFIED', 'UNSPECIFIED', 'UNSPECIFIED', ('UNSPECIFIED'), ('UNSPECIFIED'), ('UNSPECIFIED') ) ;
#71 = CIRCLE ( 'NONE', #72, 347.5000000000000000 ) ;
#72 = AXIS2_PLACEMENT_3D ( 'NONE', #123, #64, #61 ) ;
#73 = CARTESIAN_POINT ( 'NONE',  ( 2.620744150175335500E-015, 5.551115123125782700E-014, 21.39999999999999900 ) ) ;
#74 = DIRECTION ( 'NONE',  ( 1.847043701040053700E-016, -1.000000000000000000, -0.0000000000000000000 ) ) ;
#75 = CARTESIAN_POINT ( 'NONE',  ( 0.0000000000000000000, 147.5000000000000000, 0.0000000000000000000 ) ) ;
#76 = DATE_AND_TIME ( #10, #174 ) ;
#77 = CARTESIAN_POINT ( 'NONE',  ( 0.0000000000000000000, 147.5000000000000000, 0.0000000000000000000 ) ) ;
#78 =( NAMED_UNIT ( * ) SI_UNIT ( $, .STERADIAN. ) SOLID_ANGLE_UNIT ( ) );
#79 = CARTESIAN_POINT ( 'NONE',  ( 0.0000000000000000000, 5.551115123125782700E-014, 0.0000000000000000000 ) ) ;
#80 = EDGE_CURVE ( 'NONE', #65, #124, #138, .T. ) ;
#81 = DIRECTION ( 'NONE',  ( -1.000000000000000000, -1.847043701040053700E-016, 0.0000000000000000000 ) ) ;
#82 = ADVANCED_BREP_SHAPE_REPRESENTATION ( 'Half Ball 695', ( #149, #135 ), #198 ) ;
#83 = DATE_AND_TIME ( #129, #108 ) ;
#84 = PERSON_AND_ORGANIZATION_ROLE ( 'design_supplier' ) ;
#85 = PERSON_AND_ORGANIZATION_ROLE ( 'design_owner' ) ;
#86 = APPROVAL_PERSON_ORGANIZATION ( #133, #170, #106 ) ;
#87 = AXIS2_PLACEMENT_3D ( 'NONE', #57, #56, #115 ) ;
#88 = ORIENTED_EDGE ( 'NONE', *, *, #39, .F. ) ;
#89 = APPROVAL_PERSON_ORGANIZATION ( #205, #33, #193 ) ;
#90 = VECTOR ( 'NONE', #151, 1000.000000000000000 ) ;
#91 = PRODUCT_DEFINITION_SHAPE ( 'NONE', 'NONE',  #159 ) ;
#92 = AXIS2_PLACEMENT_3D ( 'NONE', #120, #29, #60 ) ;
#93 = CARTESIAN_POINT ( 'NONE',  ( -3.650380363900363700E-031, 5.551115123125782700E-014, -21.39999999999999900 ) ) ;
#94 = CARTESIAN_POINT ( 'NONE',  ( 0.0000000000000000000, 147.5000000000000000, -21.39999999999999900 ) ) ;
#95 = EDGE_LOOP ( 'NONE', ( #227, #137, #22 ) ) ;
#96 = DIRECTION ( 'NONE',  ( 0.0000000000000000000, 0.0000000000000000000, -1.000000000000000000 ) ) ;
#97 = APPROVAL_DATE_TIME ( #146, #33 ) ;
#98 = DIRECTION ( 'NONE',  ( -1.000000000000000000, -0.0000000000000000000, -1.224646799147353200E-016 ) ) ;
#99 = AXIS2_PLACEMENT_3D ( 'NONE', #203, #111, #230 ) ;
#100 = DIRECTION ( 'NONE',  ( 0.0000000000000000000, 0.0000000000000000000, -1.000000000000000000 ) ) ;
#101 = PERSON_AND_ORGANIZATION ( #70, #231 ) ;
#102 = APPLICATION_CONTEXT ( 'configuration controlled 3d designs of mechanical parts and assemblies' ) ;
#103 = SECURITY_CLASSIFICATION_LEVEL ( 'unclassified' ) ;
#104 = AXIS2_PLACEMENT_3D ( 'NONE', #79, #136, #153 ) ;
#105 = ORIENTED_EDGE ( 'NONE', *, *, #200, .F. ) ;
#106 = APPROVAL_ROLE ( '' ) ;
#107 = CC_DESIGN_PERSON_AND_ORGANIZATION_ASSIGNMENT ( #24, #152, ( #66 ) ) ;
#108 = LOCAL_TIME ( 10, 50, 46.00000000000000000, #113 ) ;
#109 = CYLINDRICAL_SURFACE ( 'NONE', #92, 21.39999999999999900 ) ;
#110 = AXIS2_PLACEMENT_3D ( 'NONE', #121, #3, #43 ) ;
#111 = DIRECTION ( 'NONE',  ( 0.0000000000000000000, -1.000000000000000000, 0.0000000000000000000 ) ) ;
#112 = CC_DESIGN_PERSON_AND_ORGANIZATION_ASSIGNMENT ( #101, #85, ( #9 ) ) ;
#113 = COORDINATED_UNIVERSAL_TIME_OFFSET ( 1, 0, .AHEAD. ) ;
#114 = DIRECTION ( 'NONE',  ( -1.224646799147353200E-016, 0.0000000000000000000, 1.000000000000000000 ) ) ;
#115 = DIRECTION ( 'NONE',  ( 0.0000000000000000000, 0.0000000000000000000, 1.000000000000000000 ) ) ;
#116 = ORIENTED_EDGE ( 'NONE', *, *, #58, .F. ) ;
#117 = ORIENTED_EDGE ( 'NONE', *, *, #58, .T. ) ;
#118 = DATE_TIME_ROLE ( 'classification_date' ) ;
#119 = LOCAL_TIME ( 10, 50, 46.00000000000000000, #67 ) ;
#120 = CARTESIAN_POINT ( 'NONE',  ( 0.0000000000000000000, 147.5000000000000000, 0.0000000000000000000 ) ) ;
#121 = CARTESIAN_POINT ( 'NONE',  ( 0.0000000000000000000, 5.551115123125782700E-014, 0.0000000000000000000 ) ) ;
#122 = AXIS2_PLACEMENT_3D ( 'NONE', #6, #27, #100 ) ;
#123 = CARTESIAN_POINT ( 'NONE',  ( -1.185520725659229300E-029, 6.418476861114186200E-014, 0.0000000000000000000 ) ) ;
#124 = VERTEX_POINT ( 'NONE', #189 ) ;
#125 = EDGE_LOOP ( 'NONE', ( #116, #224, #229, #37 ) ) ;
#126 = SECURITY_CLASSIFICATION ( '', '', #103 ) ;
#127 = ADVANCED_FACE ( 'NONE', ( #175 ), #40, .F. ) ;
#128 = AXIS2_PLACEMENT_3D ( 'NONE', #131, #74, #21 ) ;
#129 = CALENDAR_DATE ( 2017, 28, 9 ) ;
#130 = LINE ( 'NONE', #94, #181 ) ;
#131 = CARTESIAN_POINT ( 'NONE',  ( -1.185520725659229300E-029, 6.418476861114186200E-014, 0.0000000000000000000 ) ) ;
#132 = DIRECTION ( 'NONE',  ( 0.0000000000000000000, 0.0000000000000000000, 1.000000000000000000 ) ) ;
#133 = PERSON_AND_ORGANIZATION ( #70, #231 ) ;
#134 =( NAMED_UNIT ( * ) PLANE_ANGLE_UNIT ( ) SI_UNIT ( $, .RADIAN. ) );
#135 = AXIS2_PLACEMENT_3D ( 'NONE', #169, #62, #25 ) ;
#136 = DIRECTION ( 'NONE',  ( -1.847043701040053700E-016, 1.000000000000000000, 0.0000000000000000000 ) ) ;
#137 = ORIENTED_EDGE ( 'NONE', *, *, #50, .T. ) ;
#138 = CIRCLE ( 'NONE', #87, 21.39999999999999900 ) ;
#139 = APPROVAL_ROLE ( '' ) ;
#140 = DIRECTION ( 'NONE',  ( -1.847043701040053700E-016, 1.000000000000000000, 0.0000000000000000000 ) ) ;
#141 = VERTEX_POINT ( 'NONE', #19 ) ;
#142 = PERSON_AND_ORGANIZATION ( #70, #231 ) ;
#143 = CC_DESIGN_PERSON_AND_ORGANIZATION_ASSIGNMENT ( #142, #208, ( #126 ) ) ;
#144 = ORIENTED_EDGE ( 'NONE', *, *, #49, .F. ) ;
#145 = ADVANCED_FACE ( 'NONE', ( #32 ), #199, .F. ) ;
#146 = DATE_AND_TIME ( #194, #119 ) ;
#147 = APPROVAL_PERSON_ORGANIZATION ( #195, #161, #139 ) ;
#148 = SHAPE_DEFINITION_REPRESENTATION ( #91, #82 ) ;
#149 = MANIFOLD_SOLID_BREP ( 'Cut-Extrude2', #2 ) ;
#150 = CC_DESIGN_PERSON_AND_ORGANIZATION_ASSIGNMENT ( #47, #84, ( #66 ) ) ;
#151 = DIRECTION ( 'NONE',  ( 0.0000000000000000000, -1.000000000000000000, 0.0000000000000000000 ) ) ;
#152 = PERSON_AND_ORGANIZATION_ROLE ( 'creator' ) ;
#153 = DIRECTION ( 'NONE',  ( -1.000000000000000000, -1.847043701040054900E-016, 0.0000000000000000000 ) ) ;
#154 =( LENGTH_UNIT ( ) NAMED_UNIT ( * ) SI_UNIT ( .MILLI., .METRE. ) );
#155 = AXIS2_PLACEMENT_3D ( 'NONE', #202, #54, #96 ) ;
#156 = DATE_TIME_ROLE ( 'creation_date' ) ;
#157 = PLANE ( 'NONE',  #222 ) ;
#158 = SPHERICAL_SURFACE ( 'NONE', #155, 347.5000000000000000 ) ;
#159 = PRODUCT_DEFINITION ( 'UNKNOWN', '', #66, #172 ) ;
#160 = CIRCLE ( 'NONE', #207, 21.39999999999999900 ) ;
#161 = APPROVAL ( #5, 'UNSPECIFIED' ) ;
#162 = ADVANCED_FACE ( 'NONE', ( #38 ), #11, .T. ) ;
#163 = CIRCLE ( 'NONE', #104, 21.39999999999999900 ) ;
#164 = DATE_AND_TIME ( #51, #69 ) ;
#165 = ORIENTED_EDGE ( 'NONE', *, *, #80, .T. ) ;
#166 = CARTESIAN_POINT ( 'NONE',  ( 2.620744150175335900E-015, 147.5000000000000000, 21.39999999999999900 ) ) ;
#167 = FACE_OUTER_BOUND ( 'NONE', #14, .T. ) ;
#168 = CARTESIAN_POINT ( 'NONE',  ( -4.255647627037052100E-014, 6.418476861114186200E-014, 347.5000000000000000 ) ) ;
#169 = CARTESIAN_POINT ( 'NONE',  ( 0.0000000000000000000, 0.0000000000000000000, 0.0000000000000000000 ) ) ;
#170 = APPROVAL ( #1, 'UNSPECIFIED' ) ;
#171 = CARTESIAN_POINT ( 'NONE',  ( 0.0000000000000000000, 0.0000000000000000000, 0.0000000000000000000 ) ) ;
#172 = DESIGN_CONTEXT ( 'detailed design', #223, 'design' ) ;
#173 = ORIENTED_EDGE ( 'NONE', *, *, #13, .T. ) ;
#174 = LOCAL_TIME ( 10, 50, 46.00000000000000000, #218 ) ;
#175 = FACE_OUTER_BOUND ( 'NONE', #30, .T. ) ;
#176 = PRODUCT_RELATED_PRODUCT_CATEGORY ( 'detail', '', ( #9 ) ) ;
#177 = PERSON_AND_ORGANIZATION ( #70, #231 ) ;
#178 = VERTEX_POINT ( 'NONE', #168 ) ;
#179 = CALENDAR_DATE ( 2017, 28, 9 ) ;
#180 = ORIENTED_EDGE ( 'NONE', *, *, #13, .F. ) ;
#181 = VECTOR ( 'NONE', #184, 1000.000000000000000 ) ;
#182 = CARTESIAN_POINT ( 'NONE',  ( 6.842277657836020900E-046, 6.418476861114186200E-014, -347.5000000000000000 ) ) ;
#183 = CC_DESIGN_APPROVAL ( #170, ( #126 ) ) ;
#184 = DIRECTION ( 'NONE',  ( 0.0000000000000000000, -1.000000000000000000, 0.0000000000000000000 ) ) ;
#185 = CIRCLE ( 'NONE', #128, 347.5000000000000000 ) ;
#186 = CARTESIAN_POINT ( 'NONE',  ( 0.0000000000000000000, 0.0000000000000000000, 0.0000000000000000000 ) ) ;
#187 = EDGE_CURVE ( 'NONE', #36, #141, #8, .T. ) ;
#188 = UNCERTAINTY_MEASURE_WITH_UNIT (LENGTH_MEASURE( 1.000000000000000100E-005 ), #154, 'distance_accuracy_value', 'NONE');
#189 = CARTESIAN_POINT ( 'NONE',  ( 2.620744150175335900E-015, 147.5000000000000000, 21.39999999999999900 ) ) ;
#190 = CARTESIAN_POINT ( 'NONE',  ( -347.5000000000000000, 0.0000000000000000000, -347.5000000000000000 ) ) ;
#191 = VERTEX_POINT ( 'NONE', #93 ) ;
#192 = EDGE_CURVE ( 'NONE', #178, #36, #71, .T. ) ;
#193 = APPROVAL_ROLE ( '' ) ;
#194 = CALENDAR_DATE ( 2017, 28, 9 ) ;
#195 = PERSON_AND_ORGANIZATION ( #70, #231 ) ;
#196 = CC_DESIGN_DATE_AND_TIME_ASSIGNMENT ( #164, #156, ( #159 ) ) ;
#197 = ADVANCED_FACE ( 'NONE', ( #167, #26 ), #157, .F. ) ;
#198 =( GEOMETRIC_REPRESENTATION_CONTEXT ( 3 ) GLOBAL_UNCERTAINTY_ASSIGNED_CONTEXT ( ( #188 ) ) GLOBAL_UNIT_ASSIGNED_CONTEXT ( ( #154, #134, #78 ) ) REPRESENTATION_CONTEXT ( 'NONE', 'WORKASPACE' ) );
#199 = CYLINDRICAL_SURFACE ( 'NONE', #99, 21.39999999999999900 ) ;
#200 = EDGE_CURVE ( 'NONE', #191, #7, #163, .T. ) ;
#201 = FACE_OUTER_BOUND ( 'NONE', #41, .T. ) ;
#202 = CARTESIAN_POINT ( 'NONE',  ( 0.0000000000000000000, 0.0000000000000000000, 0.0000000000000000000 ) ) ;
#203 = CARTESIAN_POINT ( 'NONE',  ( 0.0000000000000000000, 147.5000000000000000, 0.0000000000000000000 ) ) ;
#204 = FACE_OUTER_BOUND ( 'NONE', #59, .T. ) ;
#205 = PERSON_AND_ORGANIZATION ( #70, #231 ) ;
#206 = MECHANICAL_CONTEXT ( 'NONE', #102, 'mechanical' ) ;
#207 = AXIS2_PLACEMENT_3D ( 'NONE', #75, #42, #132 ) ;
#208 = PERSON_AND_ORGANIZATION_ROLE ( 'classification_officer' ) ;
#209 = APPROVAL_STATUS ( 'not_yet_approved' ) ;
#210 = CC_DESIGN_PERSON_AND_ORGANIZATION_ASSIGNMENT ( #177, #28, ( #159 ) ) ;
#211 = EDGE_LOOP ( 'NONE', ( #215, #23 ) ) ;
#212 = ORIENTED_EDGE ( 'NONE', *, *, #50, .F. ) ;
#213 = AXIS2_PLACEMENT_3D ( 'NONE', #186, #98, #114 ) ;
#214 = ADVANCED_FACE ( 'NONE', ( #201 ), #109, .F. ) ;
#215 = ORIENTED_EDGE ( 'NONE', *, *, #200, .T. ) ;
#216 = LOCAL_TIME ( 10, 50, 46.00000000000000000, #225 ) ;
#217 = DIRECTION ( 'NONE',  ( 0.0000000000000000000, 1.000000000000000000, 0.0000000000000000000 ) ) ;
#218 = COORDINATED_UNIVERSAL_TIME_OFFSET ( 1, 0, .AHEAD. ) ;
#219 = DIRECTION ( 'NONE',  ( 1.000000000000000000, 0.0000000000000000000, 0.0000000000000000000 ) ) ;
#220 = APPLICATION_PROTOCOL_DEFINITION ( 'international standard', 'config_control_design', 1994, #223 ) ;
#221 = APPLICATION_PROTOCOL_DEFINITION ( 'international standard', 'config_control_design', 1994, #102 ) ;
#222 = AXIS2_PLACEMENT_3D ( 'NONE', #190, #140, #81 ) ;
#223 = APPLICATION_CONTEXT ( 'configuration controlled 3d designs of mechanical parts and assemblies' ) ;
#224 = ORIENTED_EDGE ( 'NONE', *, *, #49, .T. ) ;
#225 = COORDINATED_UNIVERSAL_TIME_OFFSET ( 1, 0, .AHEAD. ) ;
#226 = CC_DESIGN_SECURITY_CLASSIFICATION ( #126, ( #66 ) ) ;
#227 = ORIENTED_EDGE ( 'NONE', *, *, #192, .F. ) ;
#228 = EDGE_CURVE ( 'NONE', #7, #191, #52, .T. ) ;
#229 = ORIENTED_EDGE ( 'NONE', *, *, #39, .T. ) ;
#230 = DIRECTION ( 'NONE',  ( 0.0000000000000000000, 0.0000000000000000000, -1.000000000000000000 ) ) ;
#231 = ORGANIZATION ( 'UNSPECIFIED', 'UNSPECIFIED', '' ) ;
ENDSEC;
END-ISO-10303-21;
