ISO-10303-21;
HEADER;
FILE_DESCRIPTION (( 'STEP AP203' ),
    '1' );
FILE_NAME ('Stepper 200.STEP',
    '2017-09-28T12:07:01',
    ( '' ),
    ( '' ),
    'SwSTEP 2.0',
    'SolidWorks 2016',
    '' );
FILE_SCHEMA (( 'CONFIG_CONTROL_DESIGN' ));
ENDSEC;

DATA;
#1 = PLANE ( 'NONE',  #130 ) ;
#2 = CARTESIAN_POINT ( 'NONE',  ( 0.0000000000000000000, 200.0000000000000000, 0.0000000000000000000 ) ) ;
#3 = MECHANICAL_CONTEXT ( 'NONE', #182, 'mechanical' ) ;
#4 = AXIS2_PLACEMENT_3D ( 'NONE', #2, #99, #148 ) ;
#5 =( NAMED_UNIT ( * ) SI_UNIT ( $, .STERADIAN. ) SOLID_ANGLE_UNIT ( ) );
#6 = ORGANIZATION ( 'UNSPECIFIED', 'UNSPECIFIED', '' ) ;
#7 = EDGE_LOOP ( 'NONE', ( #234, #211, #122, #23 ) ) ;
#8 = COORDINATED_UNIVERSAL_TIME_OFFSET ( 1, 0, .AHEAD. ) ;
#9 = ORIENTED_EDGE ( 'NONE', *, *, #57, .T. ) ;
#10 = EDGE_CURVE ( 'NONE', #253, #129, #113, .T. ) ;
#11 = LINE ( 'NONE', #45, #121 ) ;
#12 = ORIENTED_EDGE ( 'NONE', *, *, #118, .F. ) ;
#13 = PERSON_AND_ORGANIZATION ( #14, #6 ) ;
#14 = PERSON ( 'UNSPECIFIED', 'UNSPECIFIED', 'UNSPECIFIED', ('UNSPECIFIED'), ('UNSPECIFIED'), ('UNSPECIFIED') ) ;
#15 = DIRECTION ( 'NONE',  ( 0.0000000000000000000, 1.000000000000000000, 0.0000000000000000000 ) ) ;
#16 = AXIS2_PLACEMENT_3D ( 'NONE', #258, #20, #259 ) ;
#17 = FACE_OUTER_BOUND ( 'NONE', #7, .T. ) ;
#18 = CARTESIAN_POINT ( 'NONE',  ( 0.0000000000000000000, 9.999999999999953800, 0.0000000000000000000 ) ) ;
#19 = VERTEX_POINT ( 'NONE', #195 ) ;
#20 = DIRECTION ( 'NONE',  ( -0.0000000000000000000, -1.000000000000000000, -0.0000000000000000000 ) ) ;
#21 = DIRECTION ( 'NONE',  ( 0.0000000000000000000, 0.0000000000000000000, -1.000000000000000000 ) ) ;
#22 = PERSON_AND_ORGANIZATION ( #14, #6 ) ;
#23 = ORIENTED_EDGE ( 'NONE', *, *, #256, .F. ) ;
#24 = CARTESIAN_POINT ( 'NONE',  ( 0.0000000000000000000, 9.999999999999953800, 127.5000000000000000 ) ) ;
#25 = PLANE ( 'NONE',  #268 ) ;
#26 = CC_DESIGN_PERSON_AND_ORGANIZATION_ASSIGNMENT ( #73, #246, ( #136 ) ) ;
#27 = LINE ( 'NONE', #218, #43 ) ;
#28 = DATE_AND_TIME ( #161, #168 ) ;
#29 = ORIENTED_EDGE ( 'NONE', *, *, #164, .T. ) ;
#30 = PERSON_AND_ORGANIZATION_ROLE ( 'design_owner' ) ;
#31 = EDGE_CURVE ( 'NONE', #270, #253, #160, .T. ) ;
#32 = DATE_TIME_ROLE ( 'classification_date' ) ;
#33 = PERSON_AND_ORGANIZATION ( #14, #6 ) ;
#34 = AXIS2_PLACEMENT_3D ( 'NONE', #197, #275, #21 ) ;
#35 = CC_DESIGN_PERSON_AND_ORGANIZATION_ASSIGNMENT ( #22, #47, ( #76 ) ) ;
#36 = ORIENTED_EDGE ( 'NONE', *, *, #265, .T. ) ;
#37 = EDGE_CURVE ( 'NONE', #262, #270, #172, .T. ) ;
#38 = EDGE_LOOP ( 'NONE', ( #71, #181, #205, #248 ) ) ;
#39 = ADVANCED_FACE ( 'NONE', ( #17 ), #142, .T. ) ;
#40 = CARTESIAN_POINT ( 'NONE',  ( 0.0000000000000000000, 200.0000000000000000, 0.0000000000000000000 ) ) ;
#41 = ADVANCED_FACE ( 'NONE', ( #260 ), #165, .T. ) ;
#42 = AXIS2_PLACEMENT_3D ( 'NONE', #68, #64, #225 ) ;
#43 = VECTOR ( 'NONE', #50, 1000.000000000000000 ) ;
#44 = APPROVAL_PERSON_ORGANIZATION ( #13, #127, #131 ) ;
#45 = CARTESIAN_POINT ( 'NONE',  ( 1.561424668912875300E-014, 9.999999999999953800, -127.5000000000000000 ) ) ;
#46 = LINE ( 'NONE', #242, #274 ) ;
#47 = PERSON_AND_ORGANIZATION_ROLE ( 'classification_officer' ) ;
#48 =( LENGTH_UNIT ( ) NAMED_UNIT ( * ) SI_UNIT ( .MILLI., .METRE. ) );
#49 = COORDINATED_UNIVERSAL_TIME_OFFSET ( 1, 0, .AHEAD. ) ;
#50 = DIRECTION ( 'NONE',  ( -0.0000000000000000000, -1.000000000000000000, -0.0000000000000000000 ) ) ;
#51 = MANIFOLD_SOLID_BREP ( 'Chamfer1', #220 ) ;
#52 = CIRCLE ( 'NONE', #16, 117.5000000000000000 ) ;
#53 = LOCAL_TIME ( 14, 7, 1.000000000000000000, #8 ) ;
#54 = AXIS2_PLACEMENT_3D ( 'NONE', #263, #176, #126 ) ;
#55 = DIRECTION ( 'NONE',  ( -0.0000000000000000000, 1.000000000000000000, -0.0000000000000000000 ) ) ;
#56 = ADVANCED_FACE ( 'NONE', ( #215 ), #137, .T. ) ;
#57 = EDGE_CURVE ( 'NONE', #150, #175, #192, .T. ) ;
#58 = FACE_OUTER_BOUND ( 'NONE', #38, .T. ) ;
#59 = ORIENTED_EDGE ( 'NONE', *, *, #179, .F. ) ;
#60 = DIRECTION ( 'NONE',  ( -0.0000000000000000000, 1.000000000000000000, -0.0000000000000000000 ) ) ;
#61 = CARTESIAN_POINT ( 'NONE',  ( 0.0000000000000000000, 200.0000000000000000, -117.4999999999998300 ) ) ;
#62 = CARTESIAN_POINT ( 'NONE',  ( 1.500192328955506500E-014, 200.0000000000000000, 117.4999999999998300 ) ) ;
#63 = AXIS2_PLACEMENT_3D ( 'NONE', #18, #55, #191 ) ;
#64 = DIRECTION ( 'NONE',  ( 0.0000000000000000000, 0.0000000000000000000, 1.000000000000000000 ) ) ;
#65 = CIRCLE ( 'NONE', #245, 127.5000000000000000 ) ;
#66 = CALENDAR_DATE ( 2017, 28, 9 ) ;
#67 = EDGE_LOOP ( 'NONE', ( #251, #116, #194, #212 ) ) ;
#68 = CARTESIAN_POINT ( 'NONE',  ( 0.0000000000000000000, 0.0000000000000000000, 0.0000000000000000000 ) ) ;
#69 = AXIS2_PLACEMENT_3D ( 'NONE', #254, #15, #272 ) ;
#70 = APPROVAL_DATE_TIME ( #128, #166 ) ;
#71 = ORIENTED_EDGE ( 'NONE', *, *, #271, .T. ) ;
#72 = VECTOR ( 'NONE', #200, 1000.000000000000100 ) ;
#73 = PERSON_AND_ORGANIZATION ( #14, #6 ) ;
#74 = DIRECTION ( 'NONE',  ( -0.0000000000000000000, -1.000000000000000000, -0.0000000000000000000 ) ) ;
#75 = DIRECTION ( 'NONE',  ( 0.0000000000000000000, -1.000000000000000000, 0.0000000000000000000 ) ) ;
#76 = SECURITY_CLASSIFICATION ( '', '', #249 ) ;
#77 = LOCAL_TIME ( 14, 7, 1.000000000000000000, #49 ) ;
#78 = DIRECTION ( 'NONE',  ( 0.0000000000000000000, 0.0000000000000000000, 1.000000000000000000 ) ) ;
#79 = UNCERTAINTY_MEASURE_WITH_UNIT (LENGTH_MEASURE( 1.000000000000000100E-005 ), #48, 'distance_accuracy_value', 'NONE');
#80 = CARTESIAN_POINT ( 'NONE',  ( 0.0000000000000000000, 0.0000000000000000000, 0.0000000000000000000 ) ) ;
#81 = CIRCLE ( 'NONE', #4, 117.4999999999998300 ) ;
#82 = CARTESIAN_POINT ( 'NONE',  ( 0.0000000000000000000, 9.999999999999953800, 0.0000000000000000000 ) ) ;
#83 = ORIENTED_EDGE ( 'NONE', *, *, #37, .T. ) ;
#84 = CARTESIAN_POINT ( 'NONE',  ( 1.561424668912875300E-014, 189.9999999999998300, 127.5000000000000000 ) ) ;
#85 = DIRECTION ( 'NONE',  ( -0.0000000000000000000, 1.000000000000000000, -0.0000000000000000000 ) ) ;
#86 = APPLICATION_CONTEXT ( 'configuration controlled 3d designs of mechanical parts and assemblies' ) ;
#87 = SHAPE_DEFINITION_REPRESENTATION ( #124, #232 ) ;
#88 = APPROVAL_STATUS ( 'not_yet_approved' ) ;
#89 = EDGE_CURVE ( 'NONE', #253, #19, #247, .T. ) ;
#90 = VECTOR ( 'NONE', #74, 1000.000000000000000 ) ;
#91 = CC_DESIGN_APPROVAL ( #219, ( #76 ) ) ;
#92 = ORIENTED_EDGE ( 'NONE', *, *, #93, .F. ) ;
#93 = EDGE_CURVE ( 'NONE', #129, #143, #185, .T. ) ;
#94 = CALENDAR_DATE ( 2017, 28, 9 ) ;
#95 = FACE_OUTER_BOUND ( 'NONE', #244, .T. ) ;
#96 = CARTESIAN_POINT ( 'NONE',  ( 1.561424668912875300E-014, 9.999999999999953800, 127.5000000000000000 ) ) ;
#97 = FACE_OUTER_BOUND ( 'NONE', #67, .T. ) ;
#98 = CARTESIAN_POINT ( 'NONE',  ( 0.0000000000000000000, 0.0000000000000000000, 0.0000000000000000000 ) ) ;
#99 = DIRECTION ( 'NONE',  ( 0.0000000000000000000, 1.000000000000000000, 0.0000000000000000000 ) ) ;
#100 = FACE_OUTER_BOUND ( 'NONE', #186, .T. ) ;
#101 = CALENDAR_DATE ( 2017, 28, 9 ) ;
#102 = DIRECTION ( 'NONE',  ( 0.0000000000000000000, -0.0000000000000000000, 1.000000000000000000 ) ) ;
#103 = CARTESIAN_POINT ( 'NONE',  ( 0.0000000000000000000, 9.999999999999953800, -127.5000000000000000 ) ) ;
#104 = DIRECTION ( 'NONE',  ( 0.0000000000000000000, 1.000000000000000000, 0.0000000000000000000 ) ) ;
#105 = APPROVAL_ROLE ( '' ) ;
#106 = APPLICATION_PROTOCOL_DEFINITION ( 'international standard', 'config_control_design', 1994, #86 ) ;
#107 = CYLINDRICAL_SURFACE ( 'NONE', #34, 127.5000000000000000 ) ;
#108 = APPROVAL_DATE_TIME ( #28, #219 ) ;
#109 = PRODUCT_DEFINITION ( 'UNKNOWN', '', #136, #157 ) ;
#110 = PERSON_AND_ORGANIZATION ( #14, #6 ) ;
#111 = PRODUCT ( 'Stepper 200', 'Stepper 200', '', ( #3 ) ) ;
#112 =( GEOMETRIC_REPRESENTATION_CONTEXT ( 3 ) GLOBAL_UNCERTAINTY_ASSIGNED_CONTEXT ( ( #79 ) ) GLOBAL_UNIT_ASSIGNED_CONTEXT ( ( #48, #180, #5 ) ) REPRESENTATION_CONTEXT ( 'NONE', 'WORKASPACE' ) );
#113 = LINE ( 'NONE', #273, #90 ) ;
#114 = ORIENTED_EDGE ( 'NONE', *, *, #57, .F. ) ;
#115 = PERSON_AND_ORGANIZATION ( #14, #6 ) ;
#116 = ORIENTED_EDGE ( 'NONE', *, *, #37, .F. ) ;
#117 = DIRECTION ( 'NONE',  ( 8.659560562354932900E-017, -0.7071067811865474600, 0.7071067811865474600 ) ) ;
#118 = EDGE_CURVE ( 'NONE', #143, #129, #65, .T. ) ;
#119 = CC_DESIGN_SECURITY_CLASSIFICATION ( #76, ( #136 ) ) ;
#120 = ADVANCED_FACE ( 'NONE', ( #207 ), #25, .T. ) ;
#121 = VECTOR ( 'NONE', #153, 1000.000000000000100 ) ;
#122 = ORIENTED_EDGE ( 'NONE', *, *, #271, .F. ) ;
#123 = CARTESIAN_POINT ( 'NONE',  ( 0.0000000000000000000, 200.0000000000000000, 0.0000000000000000000 ) ) ;
#124 = PRODUCT_DEFINITION_SHAPE ( 'NONE', 'NONE',  #109 ) ;
#125 = CARTESIAN_POINT ( 'NONE',  ( 0.0000000000000000000, 9.999999999999953800, 0.0000000000000000000 ) ) ;
#126 = DIRECTION ( 'NONE',  ( 0.0000000000000000000, 0.0000000000000000000, -1.000000000000000000 ) ) ;
#127 = APPROVAL ( #88, 'UNSPECIFIED' ) ;
#128 = DATE_AND_TIME ( #250, #77 ) ;
#129 = VERTEX_POINT ( 'NONE', #96 ) ;
#130 = AXIS2_PLACEMENT_3D ( 'NONE', #80, #151, #102 ) ;
#131 = APPROVAL_ROLE ( '' ) ;
#132 = CC_DESIGN_APPROVAL ( #166, ( #109 ) ) ;
#133 = APPROVAL_DATE_TIME ( #199, #127 ) ;
#134 = EDGE_LOOP ( 'NONE', ( #83, #162 ) ) ;
#135 = EDGE_CURVE ( 'NONE', #175, #129, #209, .T. ) ;
#136 = PRODUCT_DEFINITION_FORMATION_WITH_SPECIFIED_SOURCE ( 'ANY', '', #111, .NOT_KNOWN. ) ;
#137 = CYLINDRICAL_SURFACE ( 'NONE', #170, 127.5000000000000000 ) ;
#138 = CC_DESIGN_DATE_AND_TIME_ASSIGNMENT ( #223, #226, ( #109 ) ) ;
#139 = CC_DESIGN_APPROVAL ( #127, ( #136 ) ) ;
#140 = CARTESIAN_POINT ( 'NONE',  ( 0.0000000000000000000, 189.9999999999998300, 0.0000000000000000000 ) ) ;
#141 = DIRECTION ( 'NONE',  ( 0.0000000000000000000, -1.000000000000000000, 0.0000000000000000000 ) ) ;
#142 = CONICAL_SURFACE ( 'NONE', #163, 117.4999999999998300, 0.7853981633974482800 ) ;
#143 = VERTEX_POINT ( 'NONE', #103 ) ;
#144 = CARTESIAN_POINT ( 'NONE',  ( 1.438959988998137700E-014, 200.0000000000000000, 117.4999999999998300 ) ) ;
#145 = EDGE_CURVE ( 'NONE', #270, #262, #81, .T. ) ;
#146 = ADVANCED_FACE ( 'NONE', ( #58 ), #107, .T. ) ;
#147 = CARTESIAN_POINT ( 'NONE',  ( 1.500192328955507500E-014, 0.0000000000000000000, -117.5000000000000000 ) ) ;
#148 = DIRECTION ( 'NONE',  ( 0.0000000000000000000, 0.0000000000000000000, 1.000000000000000000 ) ) ;
#149 = APPROVAL_PERSON_ORGANIZATION ( #110, #219, #227 ) ;
#150 = VERTEX_POINT ( 'NONE', #147 ) ;
#151 = DIRECTION ( 'NONE',  ( 0.0000000000000000000, 1.000000000000000000, 0.0000000000000000000 ) ) ;
#152 = DIRECTION ( 'NONE',  ( 0.0000000000000000000, -0.0000000000000000000, 1.000000000000000000 ) ) ;
#153 = DIRECTION ( 'NONE',  ( 8.659560562354957500E-017, 0.7071067811865455700, -0.7071067811865495700 ) ) ;
#154 = VECTOR ( 'NONE', #117, 1000.000000000000100 ) ;
#155 = PERSON_AND_ORGANIZATION_ROLE ( 'creator' ) ;
#156 = APPROVAL_STATUS ( 'not_yet_approved' ) ;
#157 = DESIGN_CONTEXT ( 'detailed design', #86, 'design' ) ;
#158 = CARTESIAN_POINT ( 'NONE',  ( 0.0000000000000000000, 189.9999999999998300, 0.0000000000000000000 ) ) ;
#159 = CC_DESIGN_PERSON_AND_ORGANIZATION_ASSIGNMENT ( #115, #155, ( #136 ) ) ;
#160 = LINE ( 'NONE', #144, #154 ) ;
#161 = CALENDAR_DATE ( 2017, 28, 9 ) ;
#162 = ORIENTED_EDGE ( 'NONE', *, *, #145, .T. ) ;
#163 = AXIS2_PLACEMENT_3D ( 'NONE', #40, #141, #236 ) ;
#164 = EDGE_CURVE ( 'NONE', #175, #150, #52, .T. ) ;
#165 = CONICAL_SURFACE ( 'NONE', #63, 127.5000000000000000, 0.7853981633974511700 ) ;
#166 = APPROVAL ( #156, 'UNSPECIFIED' ) ;
#167 = DIRECTION ( 'NONE',  ( -0.0000000000000000000, -1.000000000000000000, -0.0000000000000000000 ) ) ;
#168 = LOCAL_TIME ( 14, 7, 1.000000000000000000, #222 ) ;
#169 = ORIENTED_EDGE ( 'NONE', *, *, #10, .F. ) ;
#170 = AXIS2_PLACEMENT_3D ( 'NONE', #214, #235, #193 ) ;
#171 = PRODUCT_RELATED_PRODUCT_CATEGORY ( 'detail', '', ( #111 ) ) ;
#172 = CIRCLE ( 'NONE', #69, 117.4999999999998300 ) ;
#173 = CC_DESIGN_PERSON_AND_ORGANIZATION_ASSIGNMENT ( #178, #229, ( #109 ) ) ;
#174 = DIRECTION ( 'NONE',  ( 0.0000000000000000000, 0.0000000000000000000, 1.000000000000000000 ) ) ;
#175 = VERTEX_POINT ( 'NONE', #238 ) ;
#176 = DIRECTION ( 'NONE',  ( 0.0000000000000000000, -1.000000000000000000, 0.0000000000000000000 ) ) ;
#177 = DIRECTION ( 'NONE',  ( 0.0000000000000000000, -1.000000000000000000, 0.0000000000000000000 ) ) ;
#178 = PERSON_AND_ORGANIZATION ( #14, #6 ) ;
#179 = EDGE_CURVE ( 'NONE', #150, #143, #11, .T. ) ;
#180 =( NAMED_UNIT ( * ) PLANE_ANGLE_UNIT ( ) SI_UNIT ( $, .RADIAN. ) );
#181 = ORIENTED_EDGE ( 'NONE', *, *, #10, .T. ) ;
#182 = APPLICATION_CONTEXT ( 'configuration controlled 3d designs of mechanical parts and assemblies' ) ;
#183 = ORIENTED_EDGE ( 'NONE', *, *, #179, .T. ) ;
#184 = AXIS2_PLACEMENT_3D ( 'NONE', #98, #167, #217 ) ;
#185 = CIRCLE ( 'NONE', #216, 127.5000000000000000 ) ;
#186 = EDGE_LOOP ( 'NONE', ( #59, #190, #239, #12 ) ) ;
#187 = CC_DESIGN_DATE_AND_TIME_ASSIGNMENT ( #188, #32, ( #76 ) ) ;
#188 = DATE_AND_TIME ( #66, #53 ) ;
#189 = LOCAL_TIME ( 14, 7, 1.000000000000000000, #261 ) ;
#190 = ORIENTED_EDGE ( 'NONE', *, *, #164, .F. ) ;
#191 = DIRECTION ( 'NONE',  ( 0.0000000000000000000, 0.0000000000000000000, 1.000000000000000000 ) ) ;
#192 = CIRCLE ( 'NONE', #184, 117.5000000000000000 ) ;
#193 = DIRECTION ( 'NONE',  ( 0.0000000000000000000, 0.0000000000000000000, -1.000000000000000000 ) ) ;
#194 = ORIENTED_EDGE ( 'NONE', *, *, #256, .T. ) ;
#195 = CARTESIAN_POINT ( 'NONE',  ( 0.0000000000000000000, 189.9999999999998300, -127.5000000000000000 ) ) ;
#196 = AXIS2_PLACEMENT_3D ( 'NONE', #158, #177, #266 ) ;
#197 = CARTESIAN_POINT ( 'NONE',  ( 0.0000000000000000000, 200.0000000000000000, 0.0000000000000000000 ) ) ;
#198 = DIRECTION ( 'NONE',  ( 0.0000000000000000000, 0.0000000000000000000, 1.000000000000000000 ) ) ;
#199 = DATE_AND_TIME ( #94, #189 ) ;
#200 = DIRECTION ( 'NONE',  ( 0.0000000000000000000, 0.7071067811865455700, 0.7071067811865495700 ) ) ;
#201 = EDGE_LOOP ( 'NONE', ( #114, #183, #92, #213 ) ) ;
#202 = AXIS2_PLACEMENT_3D ( 'NONE', #140, #75, #174 ) ;
#203 = APPROVAL_STATUS ( 'not_yet_approved' ) ;
#204 = APPROVAL_PERSON_ORGANIZATION ( #255, #166, #105 ) ;
#205 = ORIENTED_EDGE ( 'NONE', *, *, #93, .T. ) ;
#206 = APPLICATION_PROTOCOL_DEFINITION ( 'international standard', 'config_control_design', 1994, #182 ) ;
#207 = FACE_OUTER_BOUND ( 'NONE', #134, .T. ) ;
#208 = ORIENTED_EDGE ( 'NONE', *, *, #89, .T. ) ;
#209 = LINE ( 'NONE', #24, #72 ) ;
#210 = LOCAL_TIME ( 14, 7, 1.000000000000000000, #233 ) ;
#211 = ORIENTED_EDGE ( 'NONE', *, *, #31, .T. ) ;
#212 = ORIENTED_EDGE ( 'NONE', *, *, #89, .F. ) ;
#213 = ORIENTED_EDGE ( 'NONE', *, *, #135, .F. ) ;
#214 = CARTESIAN_POINT ( 'NONE',  ( 0.0000000000000000000, 200.0000000000000000, 0.0000000000000000000 ) ) ;
#215 = FACE_OUTER_BOUND ( 'NONE', #231, .T. ) ;
#216 = AXIS2_PLACEMENT_3D ( 'NONE', #241, #224, #198 ) ;
#217 = DIRECTION ( 'NONE',  ( 0.0000000000000000000, 0.0000000000000000000, 1.000000000000000000 ) ) ;
#218 = CARTESIAN_POINT ( 'NONE',  ( 0.0000000000000000000, 200.0000000000000000, -127.5000000000000000 ) ) ;
#219 = APPROVAL ( #203, 'UNSPECIFIED' ) ;
#220 = CLOSED_SHELL ( 'NONE', ( #39, #41, #146, #56, #120, #257, #237, #264 ) ) ;
#221 = DIRECTION ( 'NONE',  ( 0.0000000000000000000, -0.7071067811865474600, -0.7071067811865474600 ) ) ;
#222 = COORDINATED_UNIVERSAL_TIME_OFFSET ( 1, 0, .AHEAD. ) ;
#223 = DATE_AND_TIME ( #101, #210 ) ;
#224 = DIRECTION ( 'NONE',  ( -0.0000000000000000000, 1.000000000000000000, -0.0000000000000000000 ) ) ;
#225 = DIRECTION ( 'NONE',  ( 1.000000000000000000, 0.0000000000000000000, 0.0000000000000000000 ) ) ;
#226 = DATE_TIME_ROLE ( 'creation_date' ) ;
#227 = APPROVAL_ROLE ( '' ) ;
#228 = AXIS2_PLACEMENT_3D ( 'NONE', #82, #60, #78 ) ;
#229 = PERSON_AND_ORGANIZATION_ROLE ( 'creator' ) ;
#230 = CONICAL_SURFACE ( 'NONE', #228, 127.5000000000000000, 0.7853981633974511700 ) ;
#231 = EDGE_LOOP ( 'NONE', ( #169, #208, #36, #267 ) ) ;
#232 = ADVANCED_BREP_SHAPE_REPRESENTATION ( 'Stepper 200', ( #51, #42 ), #112 ) ;
#233 = COORDINATED_UNIVERSAL_TIME_OFFSET ( 1, 0, .AHEAD. ) ;
#234 = ORIENTED_EDGE ( 'NONE', *, *, #145, .F. ) ;
#235 = DIRECTION ( 'NONE',  ( -0.0000000000000000000, -1.000000000000000000, -0.0000000000000000000 ) ) ;
#236 = DIRECTION ( 'NONE',  ( 0.0000000000000000000, 0.0000000000000000000, -1.000000000000000000 ) ) ;
#237 = ADVANCED_FACE ( 'NONE', ( #100 ), #230, .T. ) ;
#238 = CARTESIAN_POINT ( 'NONE',  ( 0.0000000000000000000, 0.0000000000000000000, 117.5000000000000000 ) ) ;
#239 = ORIENTED_EDGE ( 'NONE', *, *, #135, .T. ) ;
#240 = CC_DESIGN_PERSON_AND_ORGANIZATION_ASSIGNMENT ( #33, #30, ( #111 ) ) ;
#241 = CARTESIAN_POINT ( 'NONE',  ( 0.0000000000000000000, 9.999999999999953800, 0.0000000000000000000 ) ) ;
#242 = CARTESIAN_POINT ( 'NONE',  ( 0.0000000000000000000, 200.0000000000000000, -117.4999999999998300 ) ) ;
#243 = DIRECTION ( 'NONE',  ( 0.0000000000000000000, 0.0000000000000000000, 1.000000000000000000 ) ) ;
#244 = EDGE_LOOP ( 'NONE', ( #29, #9 ) ) ;
#245 = AXIS2_PLACEMENT_3D ( 'NONE', #125, #85, #243 ) ;
#246 = PERSON_AND_ORGANIZATION_ROLE ( 'design_supplier' ) ;
#247 = CIRCLE ( 'NONE', #202, 127.5000000000000000 ) ;
#248 = ORIENTED_EDGE ( 'NONE', *, *, #265, .F. ) ;
#249 = SECURITY_CLASSIFICATION_LEVEL ( 'unclassified' ) ;
#250 = CALENDAR_DATE ( 2017, 28, 9 ) ;
#251 = ORIENTED_EDGE ( 'NONE', *, *, #31, .F. ) ;
#252 = CIRCLE ( 'NONE', #196, 127.5000000000000000 ) ;
#253 = VERTEX_POINT ( 'NONE', #84 ) ;
#254 = CARTESIAN_POINT ( 'NONE',  ( 0.0000000000000000000, 200.0000000000000000, 0.0000000000000000000 ) ) ;
#255 = PERSON_AND_ORGANIZATION ( #14, #6 ) ;
#256 = EDGE_CURVE ( 'NONE', #262, #19, #46, .T. ) ;
#257 = ADVANCED_FACE ( 'NONE', ( #95 ), #1, .F. ) ;
#258 = CARTESIAN_POINT ( 'NONE',  ( 0.0000000000000000000, 0.0000000000000000000, 0.0000000000000000000 ) ) ;
#259 = DIRECTION ( 'NONE',  ( 0.0000000000000000000, 0.0000000000000000000, 1.000000000000000000 ) ) ;
#260 = FACE_OUTER_BOUND ( 'NONE', #201, .T. ) ;
#261 = COORDINATED_UNIVERSAL_TIME_OFFSET ( 1, 0, .AHEAD. ) ;
#262 = VERTEX_POINT ( 'NONE', #61 ) ;
#263 = CARTESIAN_POINT ( 'NONE',  ( 0.0000000000000000000, 200.0000000000000000, 0.0000000000000000000 ) ) ;
#264 = ADVANCED_FACE ( 'NONE', ( #97 ), #269, .T. ) ;
#265 = EDGE_CURVE ( 'NONE', #19, #143, #27, .T. ) ;
#266 = DIRECTION ( 'NONE',  ( 0.0000000000000000000, 0.0000000000000000000, 1.000000000000000000 ) ) ;
#267 = ORIENTED_EDGE ( 'NONE', *, *, #118, .T. ) ;
#268 = AXIS2_PLACEMENT_3D ( 'NONE', #123, #104, #152 ) ;
#269 = CONICAL_SURFACE ( 'NONE', #54, 117.4999999999998300, 0.7853981633974482800 ) ;
#270 = VERTEX_POINT ( 'NONE', #62 ) ;
#271 = EDGE_CURVE ( 'NONE', #19, #253, #252, .T. ) ;
#272 = DIRECTION ( 'NONE',  ( 0.0000000000000000000, 0.0000000000000000000, 1.000000000000000000 ) ) ;
#273 = CARTESIAN_POINT ( 'NONE',  ( 1.561424668912875300E-014, 200.0000000000000000, 127.5000000000000000 ) ) ;
#274 = VECTOR ( 'NONE', #221, 1000.000000000000100 ) ;
#275 = DIRECTION ( 'NONE',  ( -0.0000000000000000000, -1.000000000000000000, -0.0000000000000000000 ) ) ;
ENDSEC;
END-ISO-10303-21;
