ISO-10303-21;
HEADER;
FILE_DESCRIPTION (( 'STEP AP203' ),
    '1' );
FILE_NAME ('Stepper 300.STEP',
    '2017-09-28T12:08:51',
    ( '' ),
    ( '' ),
    'SwSTEP 2.0',
    'SolidWorks 2016',
    '' );
FILE_SCHEMA (( 'CONFIG_CONTROL_DESIGN' ));
ENDSEC;

DATA;
#1 = ORIENTED_EDGE ( 'NONE', *, *, #127, .T. ) ;
#2 = PLANE ( 'NONE',  #12 ) ;
#3 = DIRECTION ( 'NONE',  ( 0.0000000000000000000, 1.000000000000000000, 0.0000000000000000000 ) ) ;
#4 = PLANE ( 'NONE',  #230 ) ;
#5 = EDGE_CURVE ( 'NONE', #196, #124, #168, .T. ) ;
#6 = CARTESIAN_POINT ( 'NONE',  ( 0.0000000000000000000, 290.0000000000000000, 0.0000000000000000000 ) ) ;
#7 = DIRECTION ( 'NONE',  ( 0.0000000000000000000, -1.000000000000000000, 0.0000000000000000000 ) ) ;
#8 = EDGE_CURVE ( 'NONE', #243, #196, #137, .T. ) ;
#9 = VERTEX_POINT ( 'NONE', #60 ) ;
#10 = CIRCLE ( 'NONE', #190, 117.4999999999998300 ) ;
#11 = CONICAL_SURFACE ( 'NONE', #194, 127.5000000000000000, 0.7853981633974482800 ) ;
#12 = AXIS2_PLACEMENT_3D ( 'NONE', #95, #210, #116 ) ;
#13 = CARTESIAN_POINT ( 'NONE',  ( 1.561424668912875300E-014, 10.00000000000017600, -127.5000000000000000 ) ) ;
#14 = FACE_OUTER_BOUND ( 'NONE', #262, .T. ) ;
#15 = ADVANCED_FACE ( 'NONE', ( #159 ), #2, .F. ) ;
#16 =( NAMED_UNIT ( * ) SI_UNIT ( $, .STERADIAN. ) SOLID_ANGLE_UNIT ( ) );
#17 = APPROVAL ( #223, 'UNSPECIFIED' ) ;
#18 = CYLINDRICAL_SURFACE ( 'NONE', #177, 127.5000000000000000 ) ;
#19 = EDGE_CURVE ( 'NONE', #243, #226, #119, .T. ) ;
#20 = DIRECTION ( 'NONE',  ( 0.0000000000000000000, -1.000000000000000000, 0.0000000000000000000 ) ) ;
#21 = ORIENTED_EDGE ( 'NONE', *, *, #259, .T. ) ;
#22 = ORIENTED_EDGE ( 'NONE', *, *, #5, .T. ) ;
#23 = CIRCLE ( 'NONE', #273, 117.4999999999999400 ) ;
#24 = DIRECTION ( 'NONE',  ( 0.0000000000000000000, 1.000000000000000000, 0.0000000000000000000 ) ) ;
#25 = EDGE_CURVE ( 'NONE', #255, #163, #23, .T. ) ;
#26 = CARTESIAN_POINT ( 'NONE',  ( 0.0000000000000000000, 300.0000000000000000, -117.4999999999999400 ) ) ;
#27 = ORIENTED_EDGE ( 'NONE', *, *, #267, .F. ) ;
#28 = CIRCLE ( 'NONE', #199, 127.5000000000000000 ) ;
#29 = APPROVAL_STATUS ( 'not_yet_approved' ) ;
#30 = AXIS2_PLACEMENT_3D ( 'NONE', #228, #69, #129 ) ;
#31 = DIRECTION ( 'NONE',  ( -0.0000000000000000000, -1.000000000000000000, -0.0000000000000000000 ) ) ;
#32 = APPROVAL_ROLE ( '' ) ;
#33 = ORIENTED_EDGE ( 'NONE', *, *, #259, .F. ) ;
#34 = DATE_TIME_ROLE ( 'creation_date' ) ;
#35 = AXIS2_PLACEMENT_3D ( 'NONE', #142, #117, #59 ) ;
#36 = CC_DESIGN_PERSON_AND_ORGANIZATION_ASSIGNMENT ( #114, #179, ( #44 ) ) ;
#37 = EDGE_LOOP ( 'NONE', ( #42, #141, #269, #53 ) ) ;
#38 = DIRECTION ( 'NONE',  ( 0.0000000000000000000, -0.0000000000000000000, 1.000000000000000000 ) ) ;
#39 = APPROVAL_DATE_TIME ( #170, #240 ) ;
#40 = LOCAL_TIME ( 14, 8, 51.00000000000000000, #50 ) ;
#41 = CARTESIAN_POINT ( 'NONE',  ( 0.0000000000000000000, 10.00000000000017600, 0.0000000000000000000 ) ) ;
#42 = ORIENTED_EDGE ( 'NONE', *, *, #25, .F. ) ;
#43 = APPROVAL_DATE_TIME ( #184, #17 ) ;
#44 = PRODUCT_DEFINITION_FORMATION_WITH_SPECIFIED_SOURCE ( 'ANY', '', #173, .NOT_KNOWN. ) ;
#45 = COORDINATED_UNIVERSAL_TIME_OFFSET ( 1, 0, .AHEAD. ) ;
#46 = FACE_OUTER_BOUND ( 'NONE', #37, .T. ) ;
#47 = CARTESIAN_POINT ( 'NONE',  ( 1.438959988998139300E-014, 300.0000000000000000, 117.4999999999999400 ) ) ;
#48 = PERSON_AND_ORGANIZATION_ROLE ( 'creator' ) ;
#49 = ORIENTED_EDGE ( 'NONE', *, *, #19, .F. ) ;
#50 = COORDINATED_UNIVERSAL_TIME_OFFSET ( 1, 0, .AHEAD. ) ;
#51 = PERSON_AND_ORGANIZATION_ROLE ( 'classification_officer' ) ;
#52 = CC_DESIGN_PERSON_AND_ORGANIZATION_ASSIGNMENT ( #150, #83, ( #173 ) ) ;
#53 = ORIENTED_EDGE ( 'NONE', *, *, #171, .F. ) ;
#54 =( GEOMETRIC_REPRESENTATION_CONTEXT ( 3 ) GLOBAL_UNCERTAINTY_ASSIGNED_CONTEXT ( ( #152 ) ) GLOBAL_UNIT_ASSIGNED_CONTEXT ( ( #272, #70, #16 ) ) REPRESENTATION_CONTEXT ( 'NONE', 'WORKASPACE' ) );
#55 = ORIENTED_EDGE ( 'NONE', *, *, #214, .T. ) ;
#56 = DIRECTION ( 'NONE',  ( 0.0000000000000000000, 0.0000000000000000000, 1.000000000000000000 ) ) ;
#57 = LINE ( 'NONE', #61, #233 ) ;
#58 = DIRECTION ( 'NONE',  ( -0.0000000000000000000, -1.000000000000000000, -0.0000000000000000000 ) ) ;
#59 = DIRECTION ( 'NONE',  ( 0.0000000000000000000, 0.0000000000000000000, -1.000000000000000000 ) ) ;
#60 = CARTESIAN_POINT ( 'NONE',  ( 1.500192328955506500E-014, 0.0000000000000000000, -117.4999999999998300 ) ) ;
#61 = CARTESIAN_POINT ( 'NONE',  ( 0.0000000000000000000, 10.00000000000017600, 127.5000000000000000 ) ) ;
#62 = LINE ( 'NONE', #47, #88 ) ;
#63 = CIRCLE ( 'NONE', #89, 117.4999999999999400 ) ;
#64 = ORIENTED_EDGE ( 'NONE', *, *, #146, .F. ) ;
#65 = SECURITY_CLASSIFICATION ( '', '', #180 ) ;
#66 = FACE_OUTER_BOUND ( 'NONE', #244, .T. ) ;
#67 = CARTESIAN_POINT ( 'NONE',  ( 0.0000000000000000000, 0.0000000000000000000, 0.0000000000000000000 ) ) ;
#68 = DATE_AND_TIME ( #206, #245 ) ;
#69 = DIRECTION ( 'NONE',  ( -0.0000000000000000000, 1.000000000000000000, -0.0000000000000000000 ) ) ;
#70 =( NAMED_UNIT ( * ) PLANE_ANGLE_UNIT ( ) SI_UNIT ( $, .RADIAN. ) );
#71 = ORIENTED_EDGE ( 'NONE', *, *, #25, .T. ) ;
#72 = FACE_OUTER_BOUND ( 'NONE', #105, .T. ) ;
#73 = EDGE_CURVE ( 'NONE', #226, #124, #242, .T. ) ;
#74 = CC_DESIGN_APPROVAL ( #17, ( #44 ) ) ;
#75 = CARTESIAN_POINT ( 'NONE',  ( 0.0000000000000000000, 0.0000000000000000000, 0.0000000000000000000 ) ) ;
#76 = ORIENTED_EDGE ( 'NONE', *, *, #186, .T. ) ;
#77 = LINE ( 'NONE', #195, #172 ) ;
#78 = CARTESIAN_POINT ( 'NONE',  ( 1.561424668912875300E-014, 300.0000000000000000, 127.5000000000000000 ) ) ;
#79 = AXIS2_PLACEMENT_3D ( 'NONE', #109, #161, #201 ) ;
#80 = AXIS2_PLACEMENT_3D ( 'NONE', #249, #31, #227 ) ;
#81 = EDGE_LOOP ( 'NONE', ( #148, #33, #191, #85 ) ) ;
#82 = APPROVAL_PERSON_ORGANIZATION ( #263, #17, #153 ) ;
#83 = PERSON_AND_ORGANIZATION_ROLE ( 'design_owner' ) ;
#84 = DIRECTION ( 'NONE',  ( 0.0000000000000000000, 1.000000000000000000, 0.0000000000000000000 ) ) ;
#85 = ORIENTED_EDGE ( 'NONE', *, *, #127, .F. ) ;
#86 = PERSON_AND_ORGANIZATION ( #176, #193 ) ;
#87 = AXIS2_PLACEMENT_3D ( 'NONE', #75, #164, #275 ) ;
#88 = VECTOR ( 'NONE', #135, 1000.000000000000100 ) ;
#89 = AXIS2_PLACEMENT_3D ( 'NONE', #112, #84, #248 ) ;
#90 = CARTESIAN_POINT ( 'NONE',  ( 0.0000000000000000000, 300.0000000000000000, 0.0000000000000000000 ) ) ;
#91 = ORIENTED_EDGE ( 'NONE', *, *, #8, .T. ) ;
#92 = COORDINATED_UNIVERSAL_TIME_OFFSET ( 1, 0, .AHEAD. ) ;
#93 = PERSON_AND_ORGANIZATION ( #176, #193 ) ;
#94 = APPROVAL ( #225, 'UNSPECIFIED' ) ;
#95 = CARTESIAN_POINT ( 'NONE',  ( 0.0000000000000000000, 0.0000000000000000000, 0.0000000000000000000 ) ) ;
#96 = DIRECTION ( 'NONE',  ( -0.0000000000000000000, -1.000000000000000000, -0.0000000000000000000 ) ) ;
#97 = CIRCLE ( 'NONE', #87, 117.4999999999998300 ) ;
#98 = CARTESIAN_POINT ( 'NONE',  ( 0.0000000000000000000, 10.00000000000017600, 0.0000000000000000000 ) ) ;
#99 = COORDINATED_UNIVERSAL_TIME_OFFSET ( 1, 0, .AHEAD. ) ;
#100 = APPROVAL_PERSON_ORGANIZATION ( #264, #94, #158 ) ;
#101 = ADVANCED_FACE ( 'NONE', ( #204 ), #4, .T. ) ;
#102 = VECTOR ( 'NONE', #58, 1000.000000000000000 ) ;
#103 = ADVANCED_FACE ( 'NONE', ( #14 ), #18, .T. ) ;
#104 = MECHANICAL_CONTEXT ( 'NONE', #154, 'mechanical' ) ;
#105 = EDGE_LOOP ( 'NONE', ( #27, #118, #209, #202 ) ) ;
#106 = AXIS2_PLACEMENT_3D ( 'NONE', #90, #188, #234 ) ;
#107 = VECTOR ( 'NONE', #140, 1000.000000000000100 ) ;
#108 = CARTESIAN_POINT ( 'NONE',  ( 1.561424668912875300E-014, 10.00000000000017600, 127.5000000000000000 ) ) ;
#109 = CARTESIAN_POINT ( 'NONE',  ( 0.0000000000000000000, 0.0000000000000000000, 0.0000000000000000000 ) ) ;
#110 = CC_DESIGN_APPROVAL ( #94, ( #224 ) ) ;
#111 = LINE ( 'NONE', #13, #107 ) ;
#112 = CARTESIAN_POINT ( 'NONE',  ( 0.0000000000000000000, 300.0000000000000000, 0.0000000000000000000 ) ) ;
#113 = DIRECTION ( 'NONE',  ( 0.0000000000000000000, 0.0000000000000000000, -1.000000000000000000 ) ) ;
#114 = PERSON_AND_ORGANIZATION ( #176, #193 ) ;
#115 = FACE_OUTER_BOUND ( 'NONE', #81, .T. ) ;
#116 = DIRECTION ( 'NONE',  ( 0.0000000000000000000, -0.0000000000000000000, 1.000000000000000000 ) ) ;
#117 = DIRECTION ( 'NONE',  ( 0.0000000000000000000, -1.000000000000000000, 0.0000000000000000000 ) ) ;
#118 = ORIENTED_EDGE ( 'NONE', *, *, #214, .F. ) ;
#119 = LINE ( 'NONE', #78, #237 ) ;
#120 = EDGE_CURVE ( 'NONE', #9, #167, #97, .T. ) ;
#121 = DIRECTION ( 'NONE',  ( 0.0000000000000000000, 0.0000000000000000000, 1.000000000000000000 ) ) ;
#122 = CC_DESIGN_APPROVAL ( #240, ( #65 ) ) ;
#123 = ORIENTED_EDGE ( 'NONE', *, *, #120, .F. ) ;
#124 = VERTEX_POINT ( 'NONE', #165 ) ;
#125 = DATE_AND_TIME ( #219, #40 ) ;
#126 = ADVANCED_FACE ( 'NONE', ( #72 ), #185, .T. ) ;
#127 = EDGE_CURVE ( 'NONE', #124, #226, #246, .T. ) ;
#128 = CC_DESIGN_PERSON_AND_ORGANIZATION_ASSIGNMENT ( #86, #205, ( #44 ) ) ;
#129 = DIRECTION ( 'NONE',  ( 0.0000000000000000000, 0.0000000000000000000, 1.000000000000000000 ) ) ;
#130 = PERSON_AND_ORGANIZATION ( #176, #193 ) ;
#131 = ADVANCED_FACE ( 'NONE', ( #46 ), #222, .T. ) ;
#132 = DESIGN_CONTEXT ( 'detailed design', #181, 'design' ) ;
#133 = CARTESIAN_POINT ( 'NONE',  ( 1.500192328955507500E-014, 300.0000000000000000, 117.4999999999999400 ) ) ;
#134 = APPLICATION_PROTOCOL_DEFINITION ( 'international standard', 'config_control_design', 1994, #154 ) ;
#135 = DIRECTION ( 'NONE',  ( 8.659560562354956300E-017, -0.7071067811865455700, 0.7071067811865493500 ) ) ;
#136 = EDGE_LOOP ( 'NONE', ( #55, #71 ) ) ;
#137 = CIRCLE ( 'NONE', #251, 127.5000000000000000 ) ;
#138 = EDGE_CURVE ( 'NONE', #196, #243, #28, .T. ) ;
#139 = PRODUCT_RELATED_PRODUCT_CATEGORY ( 'detail', '', ( #173 ) ) ;
#140 = DIRECTION ( 'NONE',  ( 8.659560562354932900E-017, 0.7071067811865474600, -0.7071067811865474600 ) ) ;
#141 = ORIENTED_EDGE ( 'NONE', *, *, #267, .T. ) ;
#142 = CARTESIAN_POINT ( 'NONE',  ( 0.0000000000000000000, 300.0000000000000000, 0.0000000000000000000 ) ) ;
#143 = DATE_AND_TIME ( #211, #271 ) ;
#144 = CARTESIAN_POINT ( 'NONE',  ( 0.0000000000000000000, 0.0000000000000000000, 117.4999999999998300 ) ) ;
#145 = PERSON_AND_ORGANIZATION ( #176, #193 ) ;
#146 = EDGE_CURVE ( 'NONE', #167, #226, #57, .T. ) ;
#147 = CARTESIAN_POINT ( 'NONE',  ( 0.0000000000000000000, 290.0000000000000000, 0.0000000000000000000 ) ) ;
#148 = ORIENTED_EDGE ( 'NONE', *, *, #186, .F. ) ;
#149 = ADVANCED_BREP_SHAPE_REPRESENTATION ( 'Stepper 300', ( #254, #79 ), #54 ) ;
#150 = PERSON_AND_ORGANIZATION ( #176, #193 ) ;
#151 = CC_DESIGN_SECURITY_CLASSIFICATION ( #65, ( #44 ) ) ;
#152 = UNCERTAINTY_MEASURE_WITH_UNIT (LENGTH_MEASURE( 1.000000000000000100E-005 ), #272, 'distance_accuracy_value', 'NONE');
#153 = APPROVAL_ROLE ( '' ) ;
#154 = APPLICATION_CONTEXT ( 'configuration controlled 3d designs of mechanical parts and assemblies' ) ;
#155 = ORIENTED_EDGE ( 'NONE', *, *, #73, .F. ) ;
#156 = DIRECTION ( 'NONE',  ( 0.0000000000000000000, 0.0000000000000000000, 1.000000000000000000 ) ) ;
#157 = APPROVAL_DATE_TIME ( #125, #94 ) ;
#158 = APPROVAL_ROLE ( '' ) ;
#159 = FACE_OUTER_BOUND ( 'NONE', #256, .T. ) ;
#160 = AXIS2_PLACEMENT_3D ( 'NONE', #212, #231, #257 ) ;
#161 = DIRECTION ( 'NONE',  ( 0.0000000000000000000, 0.0000000000000000000, 1.000000000000000000 ) ) ;
#162 = CARTESIAN_POINT ( 'NONE',  ( 0.0000000000000000000, 300.0000000000000000, -127.5000000000000000 ) ) ;
#163 = VERTEX_POINT ( 'NONE', #26 ) ;
#164 = DIRECTION ( 'NONE',  ( -0.0000000000000000000, -1.000000000000000000, -0.0000000000000000000 ) ) ;
#165 = CARTESIAN_POINT ( 'NONE',  ( 0.0000000000000000000, 10.00000000000017600, -127.5000000000000000 ) ) ;
#166 = CARTESIAN_POINT ( 'NONE',  ( 0.0000000000000000000, 300.0000000000000000, 0.0000000000000000000 ) ) ;
#167 = VERTEX_POINT ( 'NONE', #144 ) ;
#168 = LINE ( 'NONE', #162, #102 ) ;
#169 = DIRECTION ( 'NONE',  ( 0.0000000000000000000, -0.7071067811865455700, -0.7071067811865493500 ) ) ;
#170 = DATE_AND_TIME ( #270, #236 ) ;
#171 = EDGE_CURVE ( 'NONE', #163, #196, #77, .T. ) ;
#172 = VECTOR ( 'NONE', #169, 1000.000000000000100 ) ;
#173 = PRODUCT ( 'Stepper 300', 'Stepper 300', '', ( #104 ) ) ;
#174 = FACE_OUTER_BOUND ( 'NONE', #189, .T. ) ;
#175 = ADVANCED_FACE ( 'NONE', ( #66 ), #11, .T. ) ;
#176 = PERSON ( 'UNSPECIFIED', 'UNSPECIFIED', 'UNSPECIFIED', ('UNSPECIFIED'), ('UNSPECIFIED'), ('UNSPECIFIED') ) ;
#177 = AXIS2_PLACEMENT_3D ( 'NONE', #166, #207, #113 ) ;
#178 = ADVANCED_FACE ( 'NONE', ( #115 ), #216, .T. ) ;
#179 = PERSON_AND_ORGANIZATION_ROLE ( 'design_supplier' ) ;
#180 = SECURITY_CLASSIFICATION_LEVEL ( 'unclassified' ) ;
#181 = APPLICATION_CONTEXT ( 'configuration controlled 3d designs of mechanical parts and assemblies' ) ;
#182 = ORIENTED_EDGE ( 'NONE', *, *, #138, .T. ) ;
#183 = ORIENTED_EDGE ( 'NONE', *, *, #120, .T. ) ;
#184 = DATE_AND_TIME ( #261, #218 ) ;
#185 = CONICAL_SURFACE ( 'NONE', #35, 117.4999999999999400, 0.7853981633974510500 ) ;
#186 = EDGE_CURVE ( 'NONE', #9, #124, #111, .T. ) ;
#187 = AXIS2_PLACEMENT_3D ( 'NONE', #41, #192, #253 ) ;
#188 = DIRECTION ( 'NONE',  ( 0.0000000000000000000, -1.000000000000000000, 0.0000000000000000000 ) ) ;
#189 = EDGE_LOOP ( 'NONE', ( #182, #250, #198, #217 ) ) ;
#190 = AXIS2_PLACEMENT_3D ( 'NONE', #67, #200, #156 ) ;
#191 = ORIENTED_EDGE ( 'NONE', *, *, #146, .T. ) ;
#192 = DIRECTION ( 'NONE',  ( -0.0000000000000000000, 1.000000000000000000, -0.0000000000000000000 ) ) ;
#193 = ORGANIZATION ( 'UNSPECIFIED', 'UNSPECIFIED', '' ) ;
#194 = AXIS2_PLACEMENT_3D ( 'NONE', #98, #239, #121 ) ;
#195 = CARTESIAN_POINT ( 'NONE',  ( 0.0000000000000000000, 300.0000000000000000, -117.4999999999999400 ) ) ;
#196 = VERTEX_POINT ( 'NONE', #197 ) ;
#197 = CARTESIAN_POINT ( 'NONE',  ( 0.0000000000000000000, 290.0000000000000000, -127.5000000000000000 ) ) ;
#198 = ORIENTED_EDGE ( 'NONE', *, *, #73, .T. ) ;
#199 = AXIS2_PLACEMENT_3D ( 'NONE', #147, #7, #238 ) ;
#200 = DIRECTION ( 'NONE',  ( -0.0000000000000000000, -1.000000000000000000, -0.0000000000000000000 ) ) ;
#201 = DIRECTION ( 'NONE',  ( 1.000000000000000000, 0.0000000000000000000, 0.0000000000000000000 ) ) ;
#202 = ORIENTED_EDGE ( 'NONE', *, *, #8, .F. ) ;
#203 = APPROVAL_PERSON_ORGANIZATION ( #145, #240, #32 ) ;
#204 = FACE_OUTER_BOUND ( 'NONE', #136, .T. ) ;
#205 = PERSON_AND_ORGANIZATION_ROLE ( 'creator' ) ;
#206 = CALENDAR_DATE ( 2017, 28, 9 ) ;
#207 = DIRECTION ( 'NONE',  ( -0.0000000000000000000, -1.000000000000000000, -0.0000000000000000000 ) ) ;
#208 = CARTESIAN_POINT ( 'NONE',  ( 0.0000000000000000000, 300.0000000000000000, 0.0000000000000000000 ) ) ;
#209 = ORIENTED_EDGE ( 'NONE', *, *, #171, .T. ) ;
#210 = DIRECTION ( 'NONE',  ( 0.0000000000000000000, 1.000000000000000000, 0.0000000000000000000 ) ) ;
#211 = CALENDAR_DATE ( 2017, 28, 9 ) ;
#212 = CARTESIAN_POINT ( 'NONE',  ( 0.0000000000000000000, 10.00000000000017600, 0.0000000000000000000 ) ) ;
#213 = DIRECTION ( 'NONE',  ( 0.0000000000000000000, 0.0000000000000000000, 1.000000000000000000 ) ) ;
#214 = EDGE_CURVE ( 'NONE', #163, #255, #63, .T. ) ;
#215 = CC_DESIGN_PERSON_AND_ORGANIZATION_ASSIGNMENT ( #130, #51, ( #65 ) ) ;
#216 = CONICAL_SURFACE ( 'NONE', #30, 127.5000000000000000, 0.7853981633974482800 ) ;
#217 = ORIENTED_EDGE ( 'NONE', *, *, #5, .F. ) ;
#218 = LOCAL_TIME ( 14, 8, 51.00000000000000000, #92 ) ;
#219 = CALENDAR_DATE ( 2017, 28, 9 ) ;
#220 = PRODUCT_DEFINITION_SHAPE ( 'NONE', 'NONE',  #224 ) ;
#221 = CC_DESIGN_PERSON_AND_ORGANIZATION_ASSIGNMENT ( #93, #48, ( #224 ) ) ;
#222 = CONICAL_SURFACE ( 'NONE', #106, 117.4999999999999400, 0.7853981633974510500 ) ;
#223 = APPROVAL_STATUS ( 'not_yet_approved' ) ;
#224 = PRODUCT_DEFINITION ( 'UNKNOWN', '', #44, #132 ) ;
#225 = APPROVAL_STATUS ( 'not_yet_approved' ) ;
#226 = VERTEX_POINT ( 'NONE', #108 ) ;
#227 = DIRECTION ( 'NONE',  ( 0.0000000000000000000, 0.0000000000000000000, -1.000000000000000000 ) ) ;
#228 = CARTESIAN_POINT ( 'NONE',  ( 0.0000000000000000000, 10.00000000000017600, 0.0000000000000000000 ) ) ;
#229 = CYLINDRICAL_SURFACE ( 'NONE', #80, 127.5000000000000000 ) ;
#230 = AXIS2_PLACEMENT_3D ( 'NONE', #235, #24, #38 ) ;
#231 = DIRECTION ( 'NONE',  ( -0.0000000000000000000, 1.000000000000000000, -0.0000000000000000000 ) ) ;
#232 = COORDINATED_UNIVERSAL_TIME_OFFSET ( 1, 0, .AHEAD. ) ;
#233 = VECTOR ( 'NONE', #260, 1000.000000000000100 ) ;
#234 = DIRECTION ( 'NONE',  ( 0.0000000000000000000, 0.0000000000000000000, -1.000000000000000000 ) ) ;
#235 = CARTESIAN_POINT ( 'NONE',  ( 0.0000000000000000000, 300.0000000000000000, 0.0000000000000000000 ) ) ;
#236 = LOCAL_TIME ( 14, 8, 51.00000000000000000, #99 ) ;
#237 = VECTOR ( 'NONE', #96, 1000.000000000000000 ) ;
#238 = DIRECTION ( 'NONE',  ( 0.0000000000000000000, 0.0000000000000000000, 1.000000000000000000 ) ) ;
#239 = DIRECTION ( 'NONE',  ( -0.0000000000000000000, 1.000000000000000000, -0.0000000000000000000 ) ) ;
#240 = APPROVAL ( #29, 'UNSPECIFIED' ) ;
#241 = CLOSED_SHELL ( 'NONE', ( #175, #131, #265, #103, #101, #15, #126, #178 ) ) ;
#242 = CIRCLE ( 'NONE', #187, 127.5000000000000000 ) ;
#243 = VERTEX_POINT ( 'NONE', #247 ) ;
#244 = EDGE_LOOP ( 'NONE', ( #123, #76, #155, #64 ) ) ;
#245 = LOCAL_TIME ( 14, 8, 51.00000000000000000, #232 ) ;
#246 = CIRCLE ( 'NONE', #160, 127.5000000000000000 ) ;
#247 = CARTESIAN_POINT ( 'NONE',  ( 1.561424668912875300E-014, 290.0000000000000000, 127.5000000000000000 ) ) ;
#248 = DIRECTION ( 'NONE',  ( 0.0000000000000000000, 0.0000000000000000000, 1.000000000000000000 ) ) ;
#249 = CARTESIAN_POINT ( 'NONE',  ( 0.0000000000000000000, 300.0000000000000000, 0.0000000000000000000 ) ) ;
#250 = ORIENTED_EDGE ( 'NONE', *, *, #19, .T. ) ;
#251 = AXIS2_PLACEMENT_3D ( 'NONE', #6, #20, #56 ) ;
#252 = CC_DESIGN_DATE_AND_TIME_ASSIGNMENT ( #143, #34, ( #224 ) ) ;
#253 = DIRECTION ( 'NONE',  ( 0.0000000000000000000, 0.0000000000000000000, 1.000000000000000000 ) ) ;
#254 = MANIFOLD_SOLID_BREP ( 'Chamfer1', #241 ) ;
#255 = VERTEX_POINT ( 'NONE', #133 ) ;
#256 = EDGE_LOOP ( 'NONE', ( #21, #183 ) ) ;
#257 = DIRECTION ( 'NONE',  ( 0.0000000000000000000, 0.0000000000000000000, 1.000000000000000000 ) ) ;
#258 = SHAPE_DEFINITION_REPRESENTATION ( #220, #149 ) ;
#259 = EDGE_CURVE ( 'NONE', #167, #9, #10, .T. ) ;
#260 = DIRECTION ( 'NONE',  ( 0.0000000000000000000, 0.7071067811865474600, 0.7071067811865474600 ) ) ;
#261 = CALENDAR_DATE ( 2017, 28, 9 ) ;
#262 = EDGE_LOOP ( 'NONE', ( #49, #91, #22, #1 ) ) ;
#263 = PERSON_AND_ORGANIZATION ( #176, #193 ) ;
#264 = PERSON_AND_ORGANIZATION ( #176, #193 ) ;
#265 = ADVANCED_FACE ( 'NONE', ( #174 ), #229, .T. ) ;
#266 = APPLICATION_PROTOCOL_DEFINITION ( 'international standard', 'config_control_design', 1994, #181 ) ;
#267 = EDGE_CURVE ( 'NONE', #255, #243, #62, .T. ) ;
#268 = CC_DESIGN_DATE_AND_TIME_ASSIGNMENT ( #68, #274, ( #65 ) ) ;
#269 = ORIENTED_EDGE ( 'NONE', *, *, #138, .F. ) ;
#270 = CALENDAR_DATE ( 2017, 28, 9 ) ;
#271 = LOCAL_TIME ( 14, 8, 51.00000000000000000, #45 ) ;
#272 =( LENGTH_UNIT ( ) NAMED_UNIT ( * ) SI_UNIT ( .MILLI., .METRE. ) );
#273 = AXIS2_PLACEMENT_3D ( 'NONE', #208, #3, #213 ) ;
#274 = DATE_TIME_ROLE ( 'classification_date' ) ;
#275 = DIRECTION ( 'NONE',  ( 0.0000000000000000000, 0.0000000000000000000, 1.000000000000000000 ) ) ;
ENDSEC;
END-ISO-10303-21;
