ISO-10303-21;
HEADER;
FILE_DESCRIPTION (( 'STEP AP203' ),
    '1' );
FILE_NAME ('Stepper 400.STEP',
    '2017-09-28T12:11:12',
    ( '' ),
    ( '' ),
    'SwSTEP 2.0',
    'SolidWorks 2016',
    '' );
FILE_SCHEMA (( 'CONFIG_CONTROL_DESIGN' ));
ENDSEC;

DATA;
#1 = CARTESIAN_POINT ( 'NONE',  ( 1.561424668912875300E-014, 390.0000000000000000, 127.5000000000000000 ) ) ;
#2 = PERSON_AND_ORGANIZATION ( #55, #245 ) ;
#3 = DIRECTION ( 'NONE',  ( -0.0000000000000000000, -1.000000000000000000, -0.0000000000000000000 ) ) ;
#4 = DIRECTION ( 'NONE',  ( 0.0000000000000000000, 0.0000000000000000000, 1.000000000000000000 ) ) ;
#5 =( NAMED_UNIT ( * ) SI_UNIT ( $, .STERADIAN. ) SOLID_ANGLE_UNIT ( ) );
#6 = MANIFOLD_SOLID_BREP ( 'Chamfer1', #197 ) ;
#7 = EDGE_LOOP ( 'NONE', ( #83, #99, #202, #57 ) ) ;
#8 = CALENDAR_DATE ( 2017, 28, 9 ) ;
#9 = APPROVAL_ROLE ( '' ) ;
#10 = DATE_TIME_ROLE ( 'creation_date' ) ;
#11 = EDGE_LOOP ( 'NONE', ( #184, #199 ) ) ;
#12 = FACE_OUTER_BOUND ( 'NONE', #175, .T. ) ;
#13 = EDGE_CURVE ( 'NONE', #130, #24, #118, .T. ) ;
#14 = ADVANCED_FACE ( 'NONE', ( #73 ), #102, .T. ) ;
#15 = APPROVAL ( #32, 'UNSPECIFIED' ) ;
#16 = PERSON_AND_ORGANIZATION ( #55, #245 ) ;
#17 = DIRECTION ( 'NONE',  ( 0.0000000000000000000, 1.000000000000000000, 0.0000000000000000000 ) ) ;
#18 = CARTESIAN_POINT ( 'NONE',  ( 0.0000000000000000000, 0.0000000000000000000, 117.4999999999998900 ) ) ;
#19 = VERTEX_POINT ( 'NONE', #126 ) ;
#20 = VECTOR ( 'NONE', #222, 1000.000000000000100 ) ;
#21 = DIRECTION ( 'NONE',  ( -0.0000000000000000000, -1.000000000000000000, -0.0000000000000000000 ) ) ;
#22 = PRODUCT_DEFINITION_FORMATION_WITH_SPECIFIED_SOURCE ( 'ANY', '', #200, .NOT_KNOWN. ) ;
#23 = DIRECTION ( 'NONE',  ( -0.0000000000000000000, -1.000000000000000000, -0.0000000000000000000 ) ) ;
#24 = VERTEX_POINT ( 'NONE', #80 ) ;
#25 = DATE_AND_TIME ( #223, #274 ) ;
#26 = APPLICATION_CONTEXT ( 'configuration controlled 3d designs of mechanical parts and assemblies' ) ;
#27 = APPROVAL_STATUS ( 'not_yet_approved' ) ;
#28 = LINE ( 'NONE', #109, #236 ) ;
#29 = ADVANCED_BREP_SHAPE_REPRESENTATION ( 'Stepper 400', ( #6, #150 ), #264 ) ;
#30 = APPROVAL_PERSON_ORGANIZATION ( #34, #15, #116 ) ;
#31 = LINE ( 'NONE', #131, #108 ) ;
#32 = APPROVAL_STATUS ( 'not_yet_approved' ) ;
#33 = CC_DESIGN_APPROVAL ( #15, ( #110 ) ) ;
#34 = PERSON_AND_ORGANIZATION ( #55, #245 ) ;
#35 = CARTESIAN_POINT ( 'NONE',  ( 0.0000000000000000000, 400.0000000000000000, 0.0000000000000000000 ) ) ;
#36 = FACE_OUTER_BOUND ( 'NONE', #7, .T. ) ;
#37 = ORIENTED_EDGE ( 'NONE', *, *, #141, .T. ) ;
#38 = DIRECTION ( 'NONE',  ( 0.0000000000000000000, 1.000000000000000000, 0.0000000000000000000 ) ) ;
#39 = DIRECTION ( 'NONE',  ( 0.0000000000000000000, -0.7071067811865455700, -0.7071067811865493500 ) ) ;
#40 = PRODUCT_DEFINITION ( 'UNKNOWN', '', #22, #270 ) ;
#41 = DIRECTION ( 'NONE',  ( 0.0000000000000000000, 0.7071067811865474600, 0.7071067811865474600 ) ) ;
#42 = CARTESIAN_POINT ( 'NONE',  ( 1.500192328955506800E-014, 0.0000000000000000000, -117.4999999999998900 ) ) ;
#43 = DIRECTION ( 'NONE',  ( -0.0000000000000000000, 1.000000000000000000, -0.0000000000000000000 ) ) ;
#44 = AXIS2_PLACEMENT_3D ( 'NONE', #64, #172, #214 ) ;
#45 = LINE ( 'NONE', #256, #260 ) ;
#46 = LOCAL_TIME ( 14, 11, 12.00000000000000000, #242 ) ;
#47 = PERSON_AND_ORGANIZATION_ROLE ( 'classification_officer' ) ;
#48 = PERSON_AND_ORGANIZATION_ROLE ( 'creator' ) ;
#49 = ORIENTED_EDGE ( 'NONE', *, *, #241, .T. ) ;
#50 = CC_DESIGN_PERSON_AND_ORGANIZATION_ASSIGNMENT ( #85, #48, ( #22 ) ) ;
#51 = AXIS2_PLACEMENT_3D ( 'NONE', #231, #106, #153 ) ;
#52 = ORIENTED_EDGE ( 'NONE', *, *, #122, .T. ) ;
#53 = DATE_AND_TIME ( #8, #61 ) ;
#54 = ADVANCED_FACE ( 'NONE', ( #180 ), #272, .T. ) ;
#55 = PERSON ( 'UNSPECIFIED', 'UNSPECIFIED', 'UNSPECIFIED', ('UNSPECIFIED'), ('UNSPECIFIED'), ('UNSPECIFIED') ) ;
#56 = APPROVAL ( #235, 'UNSPECIFIED' ) ;
#57 = ORIENTED_EDGE ( 'NONE', *, *, #141, .F. ) ;
#58 = SHAPE_DEFINITION_REPRESENTATION ( #155, #29 ) ;
#59 = DIRECTION ( 'NONE',  ( 0.0000000000000000000, 0.0000000000000000000, -1.000000000000000000 ) ) ;
#60 = CIRCLE ( 'NONE', #128, 117.4999999999999400 ) ;
#61 = LOCAL_TIME ( 14, 11, 12.00000000000000000, #237 ) ;
#62 = CARTESIAN_POINT ( 'NONE',  ( 0.0000000000000000000, 400.0000000000000000, -117.4999999999999400 ) ) ;
#63 = VECTOR ( 'NONE', #39, 1000.000000000000100 ) ;
#64 = CARTESIAN_POINT ( 'NONE',  ( 0.0000000000000000000, 400.0000000000000000, 0.0000000000000000000 ) ) ;
#65 = CARTESIAN_POINT ( 'NONE',  ( 1.561424668912875300E-014, 10.00000000000012100, 127.5000000000000000 ) ) ;
#66 = DIRECTION ( 'NONE',  ( 0.0000000000000000000, 0.0000000000000000000, 1.000000000000000000 ) ) ;
#67 = ORIENTED_EDGE ( 'NONE', *, *, #169, .F. ) ;
#68 = CARTESIAN_POINT ( 'NONE',  ( 0.0000000000000000000, 10.00000000000012100, 0.0000000000000000000 ) ) ;
#69 = DIRECTION ( 'NONE',  ( 1.000000000000000000, 0.0000000000000000000, 0.0000000000000000000 ) ) ;
#70 = ORIENTED_EDGE ( 'NONE', *, *, #229, .F. ) ;
#71 = LINE ( 'NONE', #224, #20 ) ;
#72 = EDGE_CURVE ( 'NONE', #216, #107, #113, .T. ) ;
#73 = FACE_OUTER_BOUND ( 'NONE', #230, .T. ) ;
#74 = ADVANCED_FACE ( 'NONE', ( #12 ), #123, .F. ) ;
#75 = ORIENTED_EDGE ( 'NONE', *, *, #234, .F. ) ;
#76 = AXIS2_PLACEMENT_3D ( 'NONE', #207, #187, #79 ) ;
#77 = ADVANCED_FACE ( 'NONE', ( #266 ), #201, .T. ) ;
#78 = ORIENTED_EDGE ( 'NONE', *, *, #185, .F. ) ;
#79 = DIRECTION ( 'NONE',  ( 0.0000000000000000000, 0.0000000000000000000, 1.000000000000000000 ) ) ;
#80 = CARTESIAN_POINT ( 'NONE',  ( 0.0000000000000000000, 10.00000000000012100, -127.5000000000000000 ) ) ;
#81 = AXIS2_PLACEMENT_3D ( 'NONE', #218, #104, #133 ) ;
#82 = DIRECTION ( 'NONE',  ( 0.0000000000000000000, 0.0000000000000000000, -1.000000000000000000 ) ) ;
#83 = ORIENTED_EDGE ( 'NONE', *, *, #271, .T. ) ;
#84 = ORIENTED_EDGE ( 'NONE', *, *, #253, .T. ) ;
#85 = PERSON_AND_ORGANIZATION ( #55, #245 ) ;
#86 = CARTESIAN_POINT ( 'NONE',  ( 0.0000000000000000000, 400.0000000000000000, 0.0000000000000000000 ) ) ;
#87 = VERTEX_POINT ( 'NONE', #42 ) ;
#88 = PERSON_AND_ORGANIZATION_ROLE ( 'design_owner' ) ;
#89 = APPLICATION_PROTOCOL_DEFINITION ( 'international standard', 'config_control_design', 1994, #156 ) ;
#90 = AXIS2_PLACEMENT_3D ( 'NONE', #68, #43, #135 ) ;
#91 = DIRECTION ( 'NONE',  ( 0.0000000000000000000, 0.0000000000000000000, 1.000000000000000000 ) ) ;
#92 = FACE_OUTER_BOUND ( 'NONE', #160, .T. ) ;
#93 = PERSON_AND_ORGANIZATION_ROLE ( 'design_supplier' ) ;
#94 = CALENDAR_DATE ( 2017, 28, 9 ) ;
#95 = APPROVAL_DATE_TIME ( #25, #56 ) ;
#96 = CC_DESIGN_PERSON_AND_ORGANIZATION_ASSIGNMENT ( #100, #93, ( #22 ) ) ;
#97 = AXIS2_PLACEMENT_3D ( 'NONE', #193, #154, #82 ) ;
#98 = CONICAL_SURFACE ( 'NONE', #265, 127.5000000000000000, 0.7853981633974482800 ) ;
#99 = ORIENTED_EDGE ( 'NONE', *, *, #169, .T. ) ;
#100 = PERSON_AND_ORGANIZATION ( #55, #245 ) ;
#101 = APPROVAL_DATE_TIME ( #161, #15 ) ;
#102 = CYLINDRICAL_SURFACE ( 'NONE', #205, 127.5000000000000000 ) ;
#103 = CIRCLE ( 'NONE', #143, 127.5000000000000000 ) ;
#104 = DIRECTION ( 'NONE',  ( -0.0000000000000000000, 1.000000000000000000, -0.0000000000000000000 ) ) ;
#105 = DIRECTION ( 'NONE',  ( 0.0000000000000000000, 0.0000000000000000000, -1.000000000000000000 ) ) ;
#106 = DIRECTION ( 'NONE',  ( 0.0000000000000000000, 1.000000000000000000, 0.0000000000000000000 ) ) ;
#107 = VERTEX_POINT ( 'NONE', #173 ) ;
#108 = VECTOR ( 'NONE', #215, 1000.000000000000100 ) ;
#109 = CARTESIAN_POINT ( 'NONE',  ( 0.0000000000000000000, 400.0000000000000000, -127.5000000000000000 ) ) ;
#110 = SECURITY_CLASSIFICATION ( '', '', #111 ) ;
#111 = SECURITY_CLASSIFICATION_LEVEL ( 'unclassified' ) ;
#112 =( NAMED_UNIT ( * ) PLANE_ANGLE_UNIT ( ) SI_UNIT ( $, .RADIAN. ) );
#113 = CIRCLE ( 'NONE', #152, 117.4999999999999400 ) ;
#114 = AXIS2_PLACEMENT_3D ( 'NONE', #174, #21, #4 ) ;
#115 = DIRECTION ( 'NONE',  ( -0.0000000000000000000, -1.000000000000000000, -0.0000000000000000000 ) ) ;
#116 = APPROVAL_ROLE ( '' ) ;
#117 = EDGE_LOOP ( 'NONE', ( #209, #250, #269, #70 ) ) ;
#118 = CIRCLE ( 'NONE', #76, 127.5000000000000000 ) ;
#119 = ADVANCED_FACE ( 'NONE', ( #92 ), #144, .T. ) ;
#120 = ORIENTED_EDGE ( 'NONE', *, *, #249, .F. ) ;
#121 = VECTOR ( 'NONE', #41, 1000.000000000000100 ) ;
#122 = EDGE_CURVE ( 'NONE', #87, #196, #208, .T. ) ;
#123 = PLANE ( 'NONE',  #51 ) ;
#124 = CC_DESIGN_PERSON_AND_ORGANIZATION_ASSIGNMENT ( #163, #47, ( #110 ) ) ;
#125 = FACE_OUTER_BOUND ( 'NONE', #117, .T. ) ;
#126 = CARTESIAN_POINT ( 'NONE',  ( 0.0000000000000000000, 390.0000000000000000, -127.5000000000000000 ) ) ;
#127 = CIRCLE ( 'NONE', #90, 127.5000000000000000 ) ;
#128 = AXIS2_PLACEMENT_3D ( 'NONE', #171, #38, #213 ) ;
#129 = DIRECTION ( 'NONE',  ( 0.0000000000000000000, 1.000000000000000000, 0.0000000000000000000 ) ) ;
#130 = VERTEX_POINT ( 'NONE', #65 ) ;
#131 = CARTESIAN_POINT ( 'NONE',  ( 1.438959988998139300E-014, 400.0000000000000000, 117.4999999999999400 ) ) ;
#132 = DIRECTION ( 'NONE',  ( 0.0000000000000000000, 0.0000000000000000000, 1.000000000000000000 ) ) ;
#133 = DIRECTION ( 'NONE',  ( 0.0000000000000000000, 0.0000000000000000000, 1.000000000000000000 ) ) ;
#134 = UNCERTAINTY_MEASURE_WITH_UNIT (LENGTH_MEASURE( 1.000000000000000100E-005 ), #262, 'distance_accuracy_value', 'NONE');
#135 = DIRECTION ( 'NONE',  ( 0.0000000000000000000, 0.0000000000000000000, 1.000000000000000000 ) ) ;
#136 = CARTESIAN_POINT ( 'NONE',  ( 0.0000000000000000000, 0.0000000000000000000, 0.0000000000000000000 ) ) ;
#137 = AXIS2_PLACEMENT_3D ( 'NONE', #177, #140, #238 ) ;
#138 = ORIENTED_EDGE ( 'NONE', *, *, #122, .F. ) ;
#139 = CIRCLE ( 'NONE', #204, 117.4999999999998900 ) ;
#140 = DIRECTION ( 'NONE',  ( 0.0000000000000000000, -1.000000000000000000, 0.0000000000000000000 ) ) ;
#141 = EDGE_CURVE ( 'NONE', #19, #24, #28, .T. ) ;
#142 = ORIENTED_EDGE ( 'NONE', *, *, #13, .F. ) ;
#143 = AXIS2_PLACEMENT_3D ( 'NONE', #240, #220, #91 ) ;
#144 = CONICAL_SURFACE ( 'NONE', #97, 117.4999999999999400, 0.7853981633974510500 ) ;
#145 = AXIS2_PLACEMENT_3D ( 'NONE', #86, #232, #105 ) ;
#146 = CARTESIAN_POINT ( 'NONE',  ( 0.0000000000000000000, 400.0000000000000000, 0.0000000000000000000 ) ) ;
#147 = CYLINDRICAL_SURFACE ( 'NONE', #145, 127.5000000000000000 ) ;
#148 = EDGE_LOOP ( 'NONE', ( #239, #273, #49, #251 ) ) ;
#149 = COORDINATED_UNIVERSAL_TIME_OFFSET ( 1, 0, .AHEAD. ) ;
#150 = AXIS2_PLACEMENT_3D ( 'NONE', #136, #259, #69 ) ;
#151 = CARTESIAN_POINT ( 'NONE',  ( 0.0000000000000000000, 10.00000000000012100, 127.5000000000000000 ) ) ;
#152 = AXIS2_PLACEMENT_3D ( 'NONE', #275, #129, #191 ) ;
#153 = DIRECTION ( 'NONE',  ( 0.0000000000000000000, -0.0000000000000000000, 1.000000000000000000 ) ) ;
#154 = DIRECTION ( 'NONE',  ( 0.0000000000000000000, -1.000000000000000000, 0.0000000000000000000 ) ) ;
#155 = PRODUCT_DEFINITION_SHAPE ( 'NONE', 'NONE',  #40 ) ;
#156 = APPLICATION_CONTEXT ( 'configuration controlled 3d designs of mechanical parts and assemblies' ) ;
#157 = FACE_OUTER_BOUND ( 'NONE', #227, .T. ) ;
#158 = PERSON_AND_ORGANIZATION_ROLE ( 'creator' ) ;
#159 = COORDINATED_UNIVERSAL_TIME_OFFSET ( 1, 0, .AHEAD. ) ;
#160 = EDGE_LOOP ( 'NONE', ( #75, #78, #168, #120 ) ) ;
#161 = DATE_AND_TIME ( #190, #247 ) ;
#162 = LINE ( 'NONE', #62, #63 ) ;
#163 = PERSON_AND_ORGANIZATION ( #55, #245 ) ;
#164 = PERSON_AND_ORGANIZATION ( #55, #245 ) ;
#165 = ORIENTED_EDGE ( 'NONE', *, *, #241, .F. ) ;
#166 = AXIS2_PLACEMENT_3D ( 'NONE', #146, #17, #170 ) ;
#167 = APPROVAL_DATE_TIME ( #186, #228 ) ;
#168 = ORIENTED_EDGE ( 'NONE', *, *, #229, .T. ) ;
#169 = EDGE_CURVE ( 'NONE', #225, #130, #45, .T. ) ;
#170 = DIRECTION ( 'NONE',  ( 0.0000000000000000000, -0.0000000000000000000, 1.000000000000000000 ) ) ;
#171 = CARTESIAN_POINT ( 'NONE',  ( 0.0000000000000000000, 400.0000000000000000, 0.0000000000000000000 ) ) ;
#172 = DIRECTION ( 'NONE',  ( 0.0000000000000000000, -1.000000000000000000, 0.0000000000000000000 ) ) ;
#173 = CARTESIAN_POINT ( 'NONE',  ( 0.0000000000000000000, 400.0000000000000000, -117.4999999999999400 ) ) ;
#174 = CARTESIAN_POINT ( 'NONE',  ( 0.0000000000000000000, 0.0000000000000000000, 0.0000000000000000000 ) ) ;
#175 = EDGE_LOOP ( 'NONE', ( #84, #52 ) ) ;
#176 = CONICAL_SURFACE ( 'NONE', #44, 117.4999999999999400, 0.7853981633974510500 ) ;
#177 = CARTESIAN_POINT ( 'NONE',  ( 0.0000000000000000000, 390.0000000000000000, 0.0000000000000000000 ) ) ;
#178 = APPROVAL_ROLE ( '' ) ;
#179 = CARTESIAN_POINT ( 'NONE',  ( 0.0000000000000000000, 0.0000000000000000000, 0.0000000000000000000 ) ) ;
#180 = FACE_OUTER_BOUND ( 'NONE', #11, .T. ) ;
#181 = CIRCLE ( 'NONE', #137, 127.5000000000000000 ) ;
#182 = ADVANCED_FACE ( 'NONE', ( #157 ), #98, .T. ) ;
#183 = DIRECTION ( 'NONE',  ( -0.0000000000000000000, -1.000000000000000000, -0.0000000000000000000 ) ) ;
#184 = ORIENTED_EDGE ( 'NONE', *, *, #185, .T. ) ;
#185 = EDGE_CURVE ( 'NONE', #107, #216, #60, .T. ) ;
#186 = DATE_AND_TIME ( #268, #46 ) ;
#187 = DIRECTION ( 'NONE',  ( -0.0000000000000000000, 1.000000000000000000, -0.0000000000000000000 ) ) ;
#188 = DIRECTION ( 'NONE',  ( -0.0000000000000000000, 1.000000000000000000, -0.0000000000000000000 ) ) ;
#189 = CC_DESIGN_PERSON_AND_ORGANIZATION_ASSIGNMENT ( #261, #88, ( #200 ) ) ;
#190 = CALENDAR_DATE ( 2017, 28, 9 ) ;
#191 = DIRECTION ( 'NONE',  ( 0.0000000000000000000, 0.0000000000000000000, 1.000000000000000000 ) ) ;
#192 = ORIENTED_EDGE ( 'NONE', *, *, #257, .T. ) ;
#193 = CARTESIAN_POINT ( 'NONE',  ( 0.0000000000000000000, 400.0000000000000000, 0.0000000000000000000 ) ) ;
#194 = CC_DESIGN_DATE_AND_TIME_ASSIGNMENT ( #210, #195, ( #110 ) ) ;
#195 = DATE_TIME_ROLE ( 'classification_date' ) ;
#196 = VERTEX_POINT ( 'NONE', #18 ) ;
#197 = CLOSED_SHELL ( 'NONE', ( #182, #206, #203, #14, #54, #74, #119, #77 ) ) ;
#198 = CC_DESIGN_APPROVAL ( #56, ( #22 ) ) ;
#199 = ORIENTED_EDGE ( 'NONE', *, *, #72, .T. ) ;
#200 = PRODUCT ( 'Stepper 400', 'Stepper 400', '', ( #263 ) ) ;
#201 = CONICAL_SURFACE ( 'NONE', #81, 127.5000000000000000, 0.7853981633974482800 ) ;
#202 = ORIENTED_EDGE ( 'NONE', *, *, #13, .T. ) ;
#203 = ADVANCED_FACE ( 'NONE', ( #36 ), #147, .T. ) ;
#204 = AXIS2_PLACEMENT_3D ( 'NONE', #179, #115, #66 ) ;
#205 = AXIS2_PLACEMENT_3D ( 'NONE', #35, #183, #59 ) ;
#206 = ADVANCED_FACE ( 'NONE', ( #125 ), #176, .T. ) ;
#207 = CARTESIAN_POINT ( 'NONE',  ( 0.0000000000000000000, 10.00000000000012100, 0.0000000000000000000 ) ) ;
#208 = CIRCLE ( 'NONE', #114, 117.4999999999998900 ) ;
#209 = ORIENTED_EDGE ( 'NONE', *, *, #72, .F. ) ;
#210 = DATE_AND_TIME ( #94, #267 ) ;
#211 = CARTESIAN_POINT ( 'NONE',  ( 0.0000000000000000000, 10.00000000000012100, 0.0000000000000000000 ) ) ;
#212 = APPROVAL_PERSON_ORGANIZATION ( #164, #56, #178 ) ;
#213 = DIRECTION ( 'NONE',  ( 0.0000000000000000000, 0.0000000000000000000, 1.000000000000000000 ) ) ;
#214 = DIRECTION ( 'NONE',  ( 0.0000000000000000000, 0.0000000000000000000, -1.000000000000000000 ) ) ;
#215 = DIRECTION ( 'NONE',  ( 8.659560562354956300E-017, -0.7071067811865455700, 0.7071067811865493500 ) ) ;
#216 = VERTEX_POINT ( 'NONE', #254 ) ;
#217 = COORDINATED_UNIVERSAL_TIME_OFFSET ( 1, 0, .AHEAD. ) ;
#218 = CARTESIAN_POINT ( 'NONE',  ( 0.0000000000000000000, 10.00000000000012100, 0.0000000000000000000 ) ) ;
#219 = CC_DESIGN_SECURITY_CLASSIFICATION ( #110, ( #22 ) ) ;
#220 = DIRECTION ( 'NONE',  ( 0.0000000000000000000, -1.000000000000000000, 0.0000000000000000000 ) ) ;
#221 = ORIENTED_EDGE ( 'NONE', *, *, #244, .T. ) ;
#222 = DIRECTION ( 'NONE',  ( 8.659560562354932900E-017, 0.7071067811865474600, -0.7071067811865474600 ) ) ;
#223 = CALENDAR_DATE ( 2017, 28, 9 ) ;
#224 = CARTESIAN_POINT ( 'NONE',  ( 1.561424668912875300E-014, 10.00000000000012100, -127.5000000000000000 ) ) ;
#225 = VERTEX_POINT ( 'NONE', #1 ) ;
#226 = APPROVAL_PERSON_ORGANIZATION ( #2, #228, #9 ) ;
#227 = EDGE_LOOP ( 'NONE', ( #138, #192, #142, #165 ) ) ;
#228 = APPROVAL ( #27, 'UNSPECIFIED' ) ;
#229 = EDGE_CURVE ( 'NONE', #107, #19, #162, .T. ) ;
#230 = EDGE_LOOP ( 'NONE', ( #67, #255, #37, #221 ) ) ;
#231 = CARTESIAN_POINT ( 'NONE',  ( 0.0000000000000000000, 0.0000000000000000000, 0.0000000000000000000 ) ) ;
#232 = DIRECTION ( 'NONE',  ( -0.0000000000000000000, -1.000000000000000000, -0.0000000000000000000 ) ) ;
#233 = CC_DESIGN_PERSON_AND_ORGANIZATION_ASSIGNMENT ( #16, #158, ( #40 ) ) ;
#234 = EDGE_CURVE ( 'NONE', #216, #225, #31, .T. ) ;
#235 = APPROVAL_STATUS ( 'not_yet_approved' ) ;
#236 = VECTOR ( 'NONE', #3, 1000.000000000000000 ) ;
#237 = COORDINATED_UNIVERSAL_TIME_OFFSET ( 1, 0, .AHEAD. ) ;
#238 = DIRECTION ( 'NONE',  ( 0.0000000000000000000, 0.0000000000000000000, 1.000000000000000000 ) ) ;
#239 = ORIENTED_EDGE ( 'NONE', *, *, #257, .F. ) ;
#240 = CARTESIAN_POINT ( 'NONE',  ( 0.0000000000000000000, 390.0000000000000000, 0.0000000000000000000 ) ) ;
#241 = EDGE_CURVE ( 'NONE', #196, #130, #252, .T. ) ;
#242 = COORDINATED_UNIVERSAL_TIME_OFFSET ( 1, 0, .AHEAD. ) ;
#243 = CC_DESIGN_APPROVAL ( #228, ( #40 ) ) ;
#244 = EDGE_CURVE ( 'NONE', #24, #130, #127, .T. ) ;
#245 = ORGANIZATION ( 'UNSPECIFIED', 'UNSPECIFIED', '' ) ;
#246 = PRODUCT_RELATED_PRODUCT_CATEGORY ( 'detail', '', ( #200 ) ) ;
#247 = LOCAL_TIME ( 14, 11, 12.00000000000000000, #217 ) ;
#248 = CC_DESIGN_DATE_AND_TIME_ASSIGNMENT ( #53, #10, ( #40 ) ) ;
#249 = EDGE_CURVE ( 'NONE', #225, #19, #181, .T. ) ;
#250 = ORIENTED_EDGE ( 'NONE', *, *, #234, .T. ) ;
#251 = ORIENTED_EDGE ( 'NONE', *, *, #244, .F. ) ;
#252 = LINE ( 'NONE', #151, #121 ) ;
#253 = EDGE_CURVE ( 'NONE', #196, #87, #139, .T. ) ;
#254 = CARTESIAN_POINT ( 'NONE',  ( 1.500192328955507500E-014, 400.0000000000000000, 117.4999999999999400 ) ) ;
#255 = ORIENTED_EDGE ( 'NONE', *, *, #249, .T. ) ;
#256 = CARTESIAN_POINT ( 'NONE',  ( 1.561424668912875300E-014, 400.0000000000000000, 127.5000000000000000 ) ) ;
#257 = EDGE_CURVE ( 'NONE', #87, #24, #71, .T. ) ;
#258 = APPLICATION_PROTOCOL_DEFINITION ( 'international standard', 'config_control_design', 1994, #26 ) ;
#259 = DIRECTION ( 'NONE',  ( 0.0000000000000000000, 0.0000000000000000000, 1.000000000000000000 ) ) ;
#260 = VECTOR ( 'NONE', #23, 1000.000000000000000 ) ;
#261 = PERSON_AND_ORGANIZATION ( #55, #245 ) ;
#262 =( LENGTH_UNIT ( ) NAMED_UNIT ( * ) SI_UNIT ( .MILLI., .METRE. ) );
#263 = MECHANICAL_CONTEXT ( 'NONE', #26, 'mechanical' ) ;
#264 =( GEOMETRIC_REPRESENTATION_CONTEXT ( 3 ) GLOBAL_UNCERTAINTY_ASSIGNED_CONTEXT ( ( #134 ) ) GLOBAL_UNIT_ASSIGNED_CONTEXT ( ( #262, #112, #5 ) ) REPRESENTATION_CONTEXT ( 'NONE', 'WORKASPACE' ) );
#265 = AXIS2_PLACEMENT_3D ( 'NONE', #211, #188, #132 ) ;
#266 = FACE_OUTER_BOUND ( 'NONE', #148, .T. ) ;
#267 = LOCAL_TIME ( 14, 11, 12.00000000000000000, #149 ) ;
#268 = CALENDAR_DATE ( 2017, 28, 9 ) ;
#269 = ORIENTED_EDGE ( 'NONE', *, *, #271, .F. ) ;
#270 = DESIGN_CONTEXT ( 'detailed design', #156, 'design' ) ;
#271 = EDGE_CURVE ( 'NONE', #19, #225, #103, .T. ) ;
#272 = PLANE ( 'NONE',  #166 ) ;
#273 = ORIENTED_EDGE ( 'NONE', *, *, #253, .F. ) ;
#274 = LOCAL_TIME ( 14, 11, 12.00000000000000000, #159 ) ;
#275 = CARTESIAN_POINT ( 'NONE',  ( 0.0000000000000000000, 400.0000000000000000, 0.0000000000000000000 ) ) ;
ENDSEC;
END-ISO-10303-21;
