ISO-10303-21;
HEADER;
FILE_DESCRIPTION (( 'STEP AP203' ),
    '1' );
FILE_NAME ('Stepper 500.STEP',
    '2017-09-28T12:14:38',
    ( '' ),
    ( '' ),
    'SwSTEP 2.0',
    'SolidWorks 2016',
    '' );
FILE_SCHEMA (( 'CONFIG_CONTROL_DESIGN' ));
ENDSEC;

DATA;
#1 = ORIENTED_EDGE ( 'NONE', *, *, #184, .F. ) ;
#2 = CALENDAR_DATE ( 2017, 28, 9 ) ;
#3 = CC_DESIGN_PERSON_AND_ORGANIZATION_ASSIGNMENT ( #260, #118, ( #180 ) ) ;
#4 = DIRECTION ( 'NONE',  ( 0.0000000000000000000, -0.0000000000000000000, 1.000000000000000000 ) ) ;
#5 = CARTESIAN_POINT ( 'NONE',  ( 0.0000000000000000000, 500.0000000000000000, 0.0000000000000000000 ) ) ;
#6 = AXIS2_PLACEMENT_3D ( 'NONE', #48, #139, #105 ) ;
#7 = DIRECTION ( 'NONE',  ( 8.659560562354956300E-017, -0.7071067811865455700, 0.7071067811865493500 ) ) ;
#8 = CARTESIAN_POINT ( 'NONE',  ( 0.0000000000000000000, 489.9999999999999400, 0.0000000000000000000 ) ) ;
#9 = LOCAL_TIME ( 14, 14, 38.00000000000000000, #201 ) ;
#10 = DIRECTION ( 'NONE',  ( -0.0000000000000000000, -1.000000000000000000, -0.0000000000000000000 ) ) ;
#11 = AXIS2_PLACEMENT_3D ( 'NONE', #31, #222, #154 ) ;
#12 = CIRCLE ( 'NONE', #11, 127.5000000000000000 ) ;
#13 = CALENDAR_DATE ( 2017, 28, 9 ) ;
#14 = SECURITY_CLASSIFICATION_LEVEL ( 'unclassified' ) ;
#15 = EDGE_CURVE ( 'NONE', #41, #98, #249, .T. ) ;
#16 = CC_DESIGN_SECURITY_CLASSIFICATION ( #180, ( #164 ) ) ;
#17 = PERSON_AND_ORGANIZATION ( #215, #83 ) ;
#18 = EDGE_LOOP ( 'NONE', ( #202, #97, #275, #115 ) ) ;
#19 = AXIS2_PLACEMENT_3D ( 'NONE', #168, #55, #224 ) ;
#20 = ORIENTED_EDGE ( 'NONE', *, *, #173, .T. ) ;
#21 = ADVANCED_FACE ( 'NONE', ( #229 ), #169, .T. ) ;
#22 = ADVANCED_FACE ( 'NONE', ( #133 ), #258, .F. ) ;
#23 = LINE ( 'NONE', #58, #135 ) ;
#24 = CARTESIAN_POINT ( 'NONE',  ( 0.0000000000000000000, 489.9999999999999400, -127.5000000000000000 ) ) ;
#25 = CALENDAR_DATE ( 2017, 28, 9 ) ;
#26 = ORIENTED_EDGE ( 'NONE', *, *, #68, .F. ) ;
#27 = DIRECTION ( 'NONE',  ( 0.0000000000000000000, 1.000000000000000000, 0.0000000000000000000 ) ) ;
#28 = CARTESIAN_POINT ( 'NONE',  ( 0.0000000000000000000, 500.0000000000000000, 0.0000000000000000000 ) ) ;
#29 = COORDINATED_UNIVERSAL_TIME_OFFSET ( 1, 0, .AHEAD. ) ;
#30 = DIRECTION ( 'NONE',  ( 0.0000000000000000000, 1.000000000000000000, 0.0000000000000000000 ) ) ;
#31 = CARTESIAN_POINT ( 'NONE',  ( 0.0000000000000000000, 10.00000000000006400, 0.0000000000000000000 ) ) ;
#32 = DIRECTION ( 'NONE',  ( 0.0000000000000000000, 0.0000000000000000000, -1.000000000000000000 ) ) ;
#33 = VECTOR ( 'NONE', #7, 1000.000000000000100 ) ;
#34 = APPLICATION_CONTEXT ( 'configuration controlled 3d designs of mechanical parts and assemblies' ) ;
#35 = VERTEX_POINT ( 'NONE', #217 ) ;
#36 = CYLINDRICAL_SURFACE ( 'NONE', #237, 127.5000000000000000 ) ;
#37 = COORDINATED_UNIVERSAL_TIME_OFFSET ( 1, 0, .AHEAD. ) ;
#38 = CC_DESIGN_PERSON_AND_ORGANIZATION_ASSIGNMENT ( #17, #61, ( #240 ) ) ;
#39 = APPROVAL_STATUS ( 'not_yet_approved' ) ;
#40 = VECTOR ( 'NONE', #245, 1000.000000000000100 ) ;
#41 = VERTEX_POINT ( 'NONE', #49 ) ;
#42 = ADVANCED_FACE ( 'NONE', ( #216 ), #274, .T. ) ;
#43 = FACE_OUTER_BOUND ( 'NONE', #110, .T. ) ;
#44 = ADVANCED_FACE ( 'NONE', ( #96 ), #155, .T. ) ;
#45 = DIRECTION ( 'NONE',  ( 0.0000000000000000000, 0.0000000000000000000, -1.000000000000000000 ) ) ;
#46 = PERSON_AND_ORGANIZATION ( #215, #83 ) ;
#47 = DIRECTION ( 'NONE',  ( -0.0000000000000000000, 1.000000000000000000, -0.0000000000000000000 ) ) ;
#48 = CARTESIAN_POINT ( 'NONE',  ( 0.0000000000000000000, 500.0000000000000000, 0.0000000000000000000 ) ) ;
#49 = CARTESIAN_POINT ( 'NONE',  ( 1.500192328955506800E-014, 500.0000000000000000, 117.4999999999998900 ) ) ;
#50 = DIRECTION ( 'NONE',  ( 0.0000000000000000000, 0.0000000000000000000, -1.000000000000000000 ) ) ;
#51 = CONICAL_SURFACE ( 'NONE', #226, 117.4999999999998900, 0.7853981633974510500 ) ;
#52 = APPROVAL_PERSON_ORGANIZATION ( #176, #148, #117 ) ;
#53 = DIRECTION ( 'NONE',  ( -0.0000000000000000000, 1.000000000000000000, -0.0000000000000000000 ) ) ;
#54 = PRODUCT_DEFINITION ( 'UNKNOWN', '', #164, #150 ) ;
#55 = DIRECTION ( 'NONE',  ( 0.0000000000000000000, 0.0000000000000000000, 1.000000000000000000 ) ) ;
#56 = CARTESIAN_POINT ( 'NONE',  ( 0.0000000000000000000, 489.9999999999999400, 0.0000000000000000000 ) ) ;
#57 = CARTESIAN_POINT ( 'NONE',  ( 1.561424668912875300E-014, 489.9999999999999400, 127.5000000000000000 ) ) ;
#58 = CARTESIAN_POINT ( 'NONE',  ( 0.0000000000000000000, 500.0000000000000000, -127.5000000000000000 ) ) ;
#59 = AXIS2_PLACEMENT_3D ( 'NONE', #8, #171, #72 ) ;
#60 = ORIENTED_EDGE ( 'NONE', *, *, #15, .F. ) ;
#61 = PERSON_AND_ORGANIZATION_ROLE ( 'design_owner' ) ;
#62 = ADVANCED_FACE ( 'NONE', ( #43 ), #51, .T. ) ;
#63 = EDGE_CURVE ( 'NONE', #35, #156, #100, .T. ) ;
#64 = PERSON_AND_ORGANIZATION_ROLE ( 'design_supplier' ) ;
#65 = VECTOR ( 'NONE', #90, 1000.000000000000000 ) ;
#66 = ORIENTED_EDGE ( 'NONE', *, *, #232, .F. ) ;
#67 = CARTESIAN_POINT ( 'NONE',  ( 0.0000000000000000000, 0.0000000000000000000, 0.0000000000000000000 ) ) ;
#68 = EDGE_CURVE ( 'NONE', #102, #183, #265, .T. ) ;
#69 = EDGE_LOOP ( 'NONE', ( #151, #175 ) ) ;
#70 = EDGE_CURVE ( 'NONE', #183, #102, #165, .T. ) ;
#71 = CARTESIAN_POINT ( 'NONE',  ( 0.0000000000000000000, 500.0000000000000000, -117.4999999999998900 ) ) ;
#72 = DIRECTION ( 'NONE',  ( 0.0000000000000000000, 0.0000000000000000000, 1.000000000000000000 ) ) ;
#73 = CC_DESIGN_APPROVAL ( #186, ( #164 ) ) ;
#74 = ORIENTED_EDGE ( 'NONE', *, *, #15, .T. ) ;
#75 = APPLICATION_PROTOCOL_DEFINITION ( 'international standard', 'config_control_design', 1994, #34 ) ;
#76 = AXIS2_PLACEMENT_3D ( 'NONE', #162, #238, #45 ) ;
#77 = DATE_AND_TIME ( #207, #243 ) ;
#78 = FACE_OUTER_BOUND ( 'NONE', #18, .T. ) ;
#79 = VERTEX_POINT ( 'NONE', #24 ) ;
#80 = AXIS2_PLACEMENT_3D ( 'NONE', #149, #53, #192 ) ;
#81 = CC_DESIGN_APPROVAL ( #148, ( #180 ) ) ;
#82 = PERSON_AND_ORGANIZATION ( #215, #83 ) ;
#83 = ORGANIZATION ( 'UNSPECIFIED', 'UNSPECIFIED', '' ) ;
#84 = LINE ( 'NONE', #88, #33 ) ;
#85 = DIRECTION ( 'NONE',  ( -0.0000000000000000000, -1.000000000000000000, -0.0000000000000000000 ) ) ;
#86 = DIRECTION ( 'NONE',  ( 0.0000000000000000000, 0.0000000000000000000, 1.000000000000000000 ) ) ;
#87 = ORIENTED_EDGE ( 'NONE', *, *, #268, .T. ) ;
#88 = CARTESIAN_POINT ( 'NONE',  ( 1.438959988998138600E-014, 500.0000000000000000, 117.4999999999998900 ) ) ;
#89 = PLANE ( 'NONE',  #189 ) ;
#90 = DIRECTION ( 'NONE',  ( -0.0000000000000000000, -1.000000000000000000, -0.0000000000000000000 ) ) ;
#91 = LINE ( 'NONE', #130, #200 ) ;
#92 = APPROVAL_DATE_TIME ( #261, #186 ) ;
#93 = DATE_AND_TIME ( #13, #211 ) ;
#94 = CARTESIAN_POINT ( 'NONE',  ( 0.0000000000000000000, 0.0000000000000000000, 117.4999999999998900 ) ) ;
#95 = AXIS2_PLACEMENT_3D ( 'NONE', #56, #221, #218 ) ;
#96 = FACE_OUTER_BOUND ( 'NONE', #179, .T. ) ;
#97 = ORIENTED_EDGE ( 'NONE', *, *, #212, .T. ) ;
#98 = VERTEX_POINT ( 'NONE', #146 ) ;
#99 = DATE_TIME_ROLE ( 'creation_date' ) ;
#100 = CIRCLE ( 'NONE', #191, 127.5000000000000000 ) ;
#101 = AXIS2_PLACEMENT_3D ( 'NONE', #213, #85, #214 ) ;
#102 = VERTEX_POINT ( 'NONE', #161 ) ;
#103 = CARTESIAN_POINT ( 'NONE',  ( 0.0000000000000000000, 0.0000000000000000000, 0.0000000000000000000 ) ) ;
#104 = CARTESIAN_POINT ( 'NONE',  ( 0.0000000000000000000, 10.00000000000006400, 0.0000000000000000000 ) ) ;
#105 = DIRECTION ( 'NONE',  ( 0.0000000000000000000, 0.0000000000000000000, -1.000000000000000000 ) ) ;
#106 = EDGE_LOOP ( 'NONE', ( #20, #247, #160, #266 ) ) ;
#107 = EDGE_LOOP ( 'NONE', ( #1, #241, #242, #123 ) ) ;
#108 = CARTESIAN_POINT ( 'NONE',  ( 0.0000000000000000000, 500.0000000000000000, 0.0000000000000000000 ) ) ;
#109 =( NAMED_UNIT ( * ) PLANE_ANGLE_UNIT ( ) SI_UNIT ( $, .RADIAN. ) );
#110 = EDGE_LOOP ( 'NONE', ( #235, #199, #193, #209 ) ) ;
#111 =( LENGTH_UNIT ( ) NAMED_UNIT ( * ) SI_UNIT ( .MILLI., .METRE. ) );
#112 = EDGE_CURVE ( 'NONE', #143, #156, #174, .T. ) ;
#113 = CARTESIAN_POINT ( 'NONE',  ( 1.561424668912875300E-014, 10.00000000000006400, 127.5000000000000000 ) ) ;
#114 = APPLICATION_CONTEXT ( 'configuration controlled 3d designs of mechanical parts and assemblies' ) ;
#115 = ORIENTED_EDGE ( 'NONE', *, *, #63, .T. ) ;
#116 = PERSON_AND_ORGANIZATION ( #215, #83 ) ;
#117 = APPROVAL_ROLE ( '' ) ;
#118 = PERSON_AND_ORGANIZATION_ROLE ( 'classification_officer' ) ;
#119 = AXIS2_PLACEMENT_3D ( 'NONE', #108, #30, #196 ) ;
#120 = CC_DESIGN_DATE_AND_TIME_ASSIGNMENT ( #93, #136, ( #180 ) ) ;
#121 = APPROVAL_DATE_TIME ( #77, #148 ) ;
#122 = FACE_OUTER_BOUND ( 'NONE', #129, .T. ) ;
#123 = ORIENTED_EDGE ( 'NONE', *, *, #63, .F. ) ;
#124 = CC_DESIGN_PERSON_AND_ORGANIZATION_ASSIGNMENT ( #205, #273, ( #164 ) ) ;
#125 = CARTESIAN_POINT ( 'NONE',  ( 0.0000000000000000000, 500.0000000000000000, 0.0000000000000000000 ) ) ;
#126 = CARTESIAN_POINT ( 'NONE',  ( 0.0000000000000000000, 10.00000000000006400, 0.0000000000000000000 ) ) ;
#127 = CARTESIAN_POINT ( 'NONE',  ( 1.561424668912875300E-014, 10.00000000000006400, -127.5000000000000000 ) ) ;
#128 = ORIENTED_EDGE ( 'NONE', *, *, #184, .T. ) ;
#129 = EDGE_LOOP ( 'NONE', ( #159, #74 ) ) ;
#130 = CARTESIAN_POINT ( 'NONE',  ( 0.0000000000000000000, 10.00000000000006400, 127.5000000000000000 ) ) ;
#131 = CC_DESIGN_PERSON_AND_ORGANIZATION_ASSIGNMENT ( #82, #64, ( #164 ) ) ;
#132 = LINE ( 'NONE', #127, #40 ) ;
#133 = FACE_OUTER_BOUND ( 'NONE', #69, .T. ) ;
#134 = APPLICATION_PROTOCOL_DEFINITION ( 'international standard', 'config_control_design', 1994, #114 ) ;
#135 = VECTOR ( 'NONE', #167, 1000.000000000000000 ) ;
#136 = DATE_TIME_ROLE ( 'classification_date' ) ;
#137 = ORIENTED_EDGE ( 'NONE', *, *, #170, .F. ) ;
#138 = COORDINATED_UNIVERSAL_TIME_OFFSET ( 1, 0, .AHEAD. ) ;
#139 = DIRECTION ( 'NONE',  ( 0.0000000000000000000, -1.000000000000000000, 0.0000000000000000000 ) ) ;
#140 = PRODUCT_RELATED_PRODUCT_CATEGORY ( 'detail', '', ( #240 ) ) ;
#141 = CIRCLE ( 'NONE', #119, 117.4999999999998900 ) ;
#142 = DATE_AND_TIME ( #25, #182 ) ;
#143 = VERTEX_POINT ( 'NONE', #57 ) ;
#144 = DIRECTION ( 'NONE',  ( -0.0000000000000000000, 1.000000000000000000, -0.0000000000000000000 ) ) ;
#145 = AXIS2_PLACEMENT_3D ( 'NONE', #103, #185, #4 ) ;
#146 = CARTESIAN_POINT ( 'NONE',  ( 0.0000000000000000000, 500.0000000000000000, -117.4999999999998900 ) ) ;
#147 = DIRECTION ( 'NONE',  ( 0.0000000000000000000, -0.0000000000000000000, 1.000000000000000000 ) ) ;
#148 = APPROVAL ( #269, 'UNSPECIFIED' ) ;
#149 = CARTESIAN_POINT ( 'NONE',  ( 0.0000000000000000000, 10.00000000000006400, 0.0000000000000000000 ) ) ;
#150 = DESIGN_CONTEXT ( 'detailed design', #114, 'design' ) ;
#151 = ORIENTED_EDGE ( 'NONE', *, *, #70, .T. ) ;
#152 = APPROVAL_DATE_TIME ( #142, #233 ) ;
#153 = AXIS2_PLACEMENT_3D ( 'NONE', #125, #27, #86 ) ;
#154 = DIRECTION ( 'NONE',  ( 0.0000000000000000000, 0.0000000000000000000, 1.000000000000000000 ) ) ;
#155 = CONICAL_SURFACE ( 'NONE', #6, 117.4999999999998900, 0.7853981633974510500 ) ;
#156 = VERTEX_POINT ( 'NONE', #113 ) ;
#157 = CALENDAR_DATE ( 2017, 28, 9 ) ;
#158 = APPROVAL_STATUS ( 'not_yet_approved' ) ;
#159 = ORIENTED_EDGE ( 'NONE', *, *, #250, .T. ) ;
#160 = ORIENTED_EDGE ( 'NONE', *, *, #170, .T. ) ;
#161 = CARTESIAN_POINT ( 'NONE',  ( 1.500192328955506800E-014, 0.0000000000000000000, -117.4999999999998900 ) ) ;
#162 = CARTESIAN_POINT ( 'NONE',  ( 0.0000000000000000000, 500.0000000000000000, 0.0000000000000000000 ) ) ;
#163 = CARTESIAN_POINT ( 'NONE',  ( 1.561424668912875300E-014, 500.0000000000000000, 127.5000000000000000 ) ) ;
#164 = PRODUCT_DEFINITION_FORMATION_WITH_SPECIFIED_SOURCE ( 'ANY', '', #240, .NOT_KNOWN. ) ;
#165 = CIRCLE ( 'NONE', #244, 117.4999999999998900 ) ;
#166 = DIRECTION ( 'NONE',  ( 0.0000000000000000000, -1.000000000000000000, 0.0000000000000000000 ) ) ;
#167 = DIRECTION ( 'NONE',  ( -0.0000000000000000000, -1.000000000000000000, -0.0000000000000000000 ) ) ;
#168 = CARTESIAN_POINT ( 'NONE',  ( 0.0000000000000000000, 0.0000000000000000000, 0.0000000000000000000 ) ) ;
#169 = CYLINDRICAL_SURFACE ( 'NONE', #76, 127.5000000000000000 ) ;
#170 = EDGE_CURVE ( 'NONE', #156, #35, #12, .T. ) ;
#171 = DIRECTION ( 'NONE',  ( 0.0000000000000000000, -1.000000000000000000, 0.0000000000000000000 ) ) ;
#172 =( NAMED_UNIT ( * ) SI_UNIT ( $, .STERADIAN. ) SOLID_ANGLE_UNIT ( ) );
#173 = EDGE_CURVE ( 'NONE', #79, #143, #181, .T. ) ;
#174 = LINE ( 'NONE', #163, #65 ) ;
#175 = ORIENTED_EDGE ( 'NONE', *, *, #68, .T. ) ;
#176 = PERSON_AND_ORGANIZATION ( #215, #83 ) ;
#177 = APPROVAL_ROLE ( '' ) ;
#178 = FACE_OUTER_BOUND ( 'NONE', #107, .T. ) ;
#179 = EDGE_LOOP ( 'NONE', ( #60, #87, #257, #254 ) ) ;
#180 = SECURITY_CLASSIFICATION ( '', '', #14 ) ;
#181 = CIRCLE ( 'NONE', #59, 127.5000000000000000 ) ;
#182 = LOCAL_TIME ( 14, 14, 38.00000000000000000, #138 ) ;
#183 = VERTEX_POINT ( 'NONE', #94 ) ;
#184 = EDGE_CURVE ( 'NONE', #102, #35, #132, .T. ) ;
#185 = DIRECTION ( 'NONE',  ( 0.0000000000000000000, 1.000000000000000000, 0.0000000000000000000 ) ) ;
#186 = APPROVAL ( #39, 'UNSPECIFIED' ) ;
#187 = CONICAL_SURFACE ( 'NONE', #80, 127.5000000000000000, 0.7853981633974510500 ) ;
#188 = DIRECTION ( 'NONE',  ( 0.0000000000000000000, 0.0000000000000000000, 1.000000000000000000 ) ) ;
#189 = AXIS2_PLACEMENT_3D ( 'NONE', #5, #219, #147 ) ;
#190 = PRODUCT_DEFINITION_SHAPE ( 'NONE', 'NONE',  #54 ) ;
#191 = AXIS2_PLACEMENT_3D ( 'NONE', #126, #144, #188 ) ;
#192 = DIRECTION ( 'NONE',  ( 0.0000000000000000000, 0.0000000000000000000, 1.000000000000000000 ) ) ;
#193 = ORIENTED_EDGE ( 'NONE', *, *, #259, .T. ) ;
#194 = DIRECTION ( 'NONE',  ( 0.0000000000000000000, 0.7071067811865455700, 0.7071067811865493500 ) ) ;
#195 = CARTESIAN_POINT ( 'NONE',  ( 0.0000000000000000000, 500.0000000000000000, 0.0000000000000000000 ) ) ;
#196 = DIRECTION ( 'NONE',  ( 0.0000000000000000000, 0.0000000000000000000, 1.000000000000000000 ) ) ;
#197 = VECTOR ( 'NONE', #262, 1000.000000000000100 ) ;
#198 = EDGE_CURVE ( 'NONE', #79, #35, #23, .T. ) ;
#199 = ORIENTED_EDGE ( 'NONE', *, *, #250, .F. ) ;
#200 = VECTOR ( 'NONE', #194, 1000.000000000000100 ) ;
#201 = COORDINATED_UNIVERSAL_TIME_OFFSET ( 1, 0, .AHEAD. ) ;
#202 = ORIENTED_EDGE ( 'NONE', *, *, #112, .F. ) ;
#203 = CC_DESIGN_APPROVAL ( #233, ( #54 ) ) ;
#204 =( GEOMETRIC_REPRESENTATION_CONTEXT ( 3 ) GLOBAL_UNCERTAINTY_ASSIGNED_CONTEXT ( ( #264 ) ) GLOBAL_UNIT_ASSIGNED_CONTEXT ( ( #111, #109, #172 ) ) REPRESENTATION_CONTEXT ( 'NONE', 'WORKASPACE' ) );
#205 = PERSON_AND_ORGANIZATION ( #215, #83 ) ;
#206 = PERSON_AND_ORGANIZATION ( #215, #83 ) ;
#207 = CALENDAR_DATE ( 2017, 28, 9 ) ;
#208 = ADVANCED_FACE ( 'NONE', ( #178 ), #187, .T. ) ;
#209 = ORIENTED_EDGE ( 'NONE', *, *, #212, .F. ) ;
#210 = DIRECTION ( 'NONE',  ( 0.0000000000000000000, 0.0000000000000000000, 1.000000000000000000 ) ) ;
#211 = LOCAL_TIME ( 14, 14, 38.00000000000000000, #255 ) ;
#212 = EDGE_CURVE ( 'NONE', #143, #79, #246, .T. ) ;
#213 = CARTESIAN_POINT ( 'NONE',  ( 0.0000000000000000000, 0.0000000000000000000, 0.0000000000000000000 ) ) ;
#214 = DIRECTION ( 'NONE',  ( 0.0000000000000000000, 0.0000000000000000000, 1.000000000000000000 ) ) ;
#215 = PERSON ( 'UNSPECIFIED', 'UNSPECIFIED', 'UNSPECIFIED', ('UNSPECIFIED'), ('UNSPECIFIED'), ('UNSPECIFIED') ) ;
#216 = FACE_OUTER_BOUND ( 'NONE', #231, .T. ) ;
#217 = CARTESIAN_POINT ( 'NONE',  ( 0.0000000000000000000, 10.00000000000006400, -127.5000000000000000 ) ) ;
#218 = DIRECTION ( 'NONE',  ( 0.0000000000000000000, 0.0000000000000000000, 1.000000000000000000 ) ) ;
#219 = DIRECTION ( 'NONE',  ( 0.0000000000000000000, 1.000000000000000000, 0.0000000000000000000 ) ) ;
#220 = LOCAL_TIME ( 14, 14, 38.00000000000000000, #29 ) ;
#221 = DIRECTION ( 'NONE',  ( 0.0000000000000000000, -1.000000000000000000, 0.0000000000000000000 ) ) ;
#222 = DIRECTION ( 'NONE',  ( -0.0000000000000000000, 1.000000000000000000, -0.0000000000000000000 ) ) ;
#223 = AXIS2_PLACEMENT_3D ( 'NONE', #104, #47, #210 ) ;
#224 = DIRECTION ( 'NONE',  ( 1.000000000000000000, 0.0000000000000000000, 0.0000000000000000000 ) ) ;
#225 = CC_DESIGN_DATE_AND_TIME_ASSIGNMENT ( #256, #99, ( #54 ) ) ;
#226 = AXIS2_PLACEMENT_3D ( 'NONE', #28, #166, #50 ) ;
#227 = PERSON_AND_ORGANIZATION_ROLE ( 'creator' ) ;
#228 = ADVANCED_FACE ( 'NONE', ( #122 ), #89, .T. ) ;
#229 = FACE_OUTER_BOUND ( 'NONE', #106, .T. ) ;
#230 = APPROVAL_PERSON_ORGANIZATION ( #206, #233, #252 ) ;
#231 = EDGE_LOOP ( 'NONE', ( #26, #128, #137, #66 ) ) ;
#232 = EDGE_CURVE ( 'NONE', #183, #156, #91, .T. ) ;
#233 = APPROVAL ( #158, 'UNSPECIFIED' ) ;
#234 = DIRECTION ( 'NONE',  ( -0.0000000000000000000, -1.000000000000000000, -0.0000000000000000000 ) ) ;
#235 = ORIENTED_EDGE ( 'NONE', *, *, #268, .F. ) ;
#236 = ADVANCED_BREP_SHAPE_REPRESENTATION ( 'Stepper 500', ( #270, #19 ), #204 ) ;
#237 = AXIS2_PLACEMENT_3D ( 'NONE', #195, #10, #32 ) ;
#238 = DIRECTION ( 'NONE',  ( -0.0000000000000000000, -1.000000000000000000, -0.0000000000000000000 ) ) ;
#239 = DIRECTION ( 'NONE',  ( 0.0000000000000000000, 0.0000000000000000000, 1.000000000000000000 ) ) ;
#240 = PRODUCT ( 'Stepper 500', 'Stepper 500', '', ( #248 ) ) ;
#241 = ORIENTED_EDGE ( 'NONE', *, *, #70, .F. ) ;
#242 = ORIENTED_EDGE ( 'NONE', *, *, #232, .T. ) ;
#243 = LOCAL_TIME ( 14, 14, 38.00000000000000000, #37 ) ;
#244 = AXIS2_PLACEMENT_3D ( 'NONE', #67, #234, #239 ) ;
#245 = DIRECTION ( 'NONE',  ( 8.659560562354956300E-017, 0.7071067811865455700, -0.7071067811865493500 ) ) ;
#246 = CIRCLE ( 'NONE', #95, 127.5000000000000000 ) ;
#247 = ORIENTED_EDGE ( 'NONE', *, *, #112, .T. ) ;
#248 = MECHANICAL_CONTEXT ( 'NONE', #34, 'mechanical' ) ;
#249 = CIRCLE ( 'NONE', #153, 117.4999999999998900 ) ;
#250 = EDGE_CURVE ( 'NONE', #98, #41, #141, .T. ) ;
#251 = LINE ( 'NONE', #71, #197 ) ;
#252 = APPROVAL_ROLE ( '' ) ;
#253 = APPROVAL_PERSON_ORGANIZATION ( #46, #186, #177 ) ;
#254 = ORIENTED_EDGE ( 'NONE', *, *, #259, .F. ) ;
#255 = COORDINATED_UNIVERSAL_TIME_OFFSET ( 1, 0, .AHEAD. ) ;
#256 = DATE_AND_TIME ( #2, #9 ) ;
#257 = ORIENTED_EDGE ( 'NONE', *, *, #173, .F. ) ;
#258 = PLANE ( 'NONE',  #145 ) ;
#259 = EDGE_CURVE ( 'NONE', #98, #79, #251, .T. ) ;
#260 = PERSON_AND_ORGANIZATION ( #215, #83 ) ;
#261 = DATE_AND_TIME ( #157, #220 ) ;
#262 = DIRECTION ( 'NONE',  ( 0.0000000000000000000, -0.7071067811865455700, -0.7071067811865493500 ) ) ;
#263 = CC_DESIGN_PERSON_AND_ORGANIZATION_ASSIGNMENT ( #116, #227, ( #54 ) ) ;
#264 = UNCERTAINTY_MEASURE_WITH_UNIT (LENGTH_MEASURE( 1.000000000000000100E-005 ), #111, 'distance_accuracy_value', 'NONE');
#265 = CIRCLE ( 'NONE', #101, 117.4999999999998900 ) ;
#266 = ORIENTED_EDGE ( 'NONE', *, *, #198, .F. ) ;
#267 = SHAPE_DEFINITION_REPRESENTATION ( #190, #236 ) ;
#268 = EDGE_CURVE ( 'NONE', #41, #143, #84, .T. ) ;
#269 = APPROVAL_STATUS ( 'not_yet_approved' ) ;
#270 = MANIFOLD_SOLID_BREP ( 'Chamfer1', #272 ) ;
#271 = ADVANCED_FACE ( 'NONE', ( #78 ), #36, .T. ) ;
#272 = CLOSED_SHELL ( 'NONE', ( #42, #44, #21, #271, #228, #22, #62, #208 ) ) ;
#273 = PERSON_AND_ORGANIZATION_ROLE ( 'creator' ) ;
#274 = CONICAL_SURFACE ( 'NONE', #223, 127.5000000000000000, 0.7853981633974510500 ) ;
#275 = ORIENTED_EDGE ( 'NONE', *, *, #198, .T. ) ;
ENDSEC;
END-ISO-10303-21;
